  0
SECTION
  2
HEADER
  9
$ACADVER
  1
AC1014
  9
$ACADMAINTVER
 70
     0
  9
$DWGCODEPAGE
  3
ANSI_1252
  9
$INSBASE
 10
0.0
 20
0.0
 30
0.0
  9
$EXTMIN
 10
-4.215278
 20
-5.5
 30
0.0
  9
$EXTMAX
 10
4.215278
 20
5.5
 30
0.0
  9
$LIMMIN
 10
0.0
 20
0.0
  9
$LIMMAX
 10
0.0
 20
0.0
  9
$ORTHOMODE
 70
     0
  9
$REGENMODE
 70
     1
  9
$FILLMODE
 70
     1
  9
$QTEXTMODE
 70
     0
  9
$MIRRTEXT
 70
     1
  9
$DRAGMODE
 70
     2
  9
$LTSCALE
 40
1.0
  9
$OSMODE
 70
     0
  9
$ATTMODE
 70
     1
  9
$TEXTSIZE
 40
0.2
  9
$TRACEWID
 40
0.05
  9
$TEXTSTYLE
  7
STANDARD
  9
$CLAYER
  8
0
  9
$CELTYPE
  6
CONTINUOUS
  9
$CECOLOR
 62
   256
  9
$CELTSCALE
 40
1.0
  9
$DELOBJ
 70
     1
  9
$DISPSILH
 70
     0
  9
$DIMSCALE
 40
1.0
  9
$DIMASZ
 40
0.18
  9
$DIMEXO
 40
0.0625
  9
$DIMDLI
 40
0.38
  9
$DIMRND
 40
0.0
  9
$DIMDLE
 40
0.0
  9
$DIMEXE
 40
0.18
  9
$DIMTP
 40
0.0
  9
$DIMTM
 40
0.0
  9
$DIMTXT
 40
0.18
  9
$DIMCEN
 40
0.09
  9
$DIMTSZ
 40
0.0
  9
$DIMTOL
 70
     0
  9
$DIMLIM
 70
     0
  9
$DIMTIH
 70
     1
  9
$DIMTOH
 70
     1
  9
$DIMSE1
 70
     0
  9
$DIMSE2
 70
     0
  9
$DIMTAD
 70
     0
  9
$DIMZIN
 70
     0
  9
$DIMBLK
  1

  9
$DIMASO
 70
     1
  9
$DIMSHO
 70
     1
  9
$DIMPOST
  1

  9
$DIMAPOST
  1

  9
$DIMALT
 70
     0
  9
$DIMALTD
 70
     2
  9
$DIMALTF
 40
25.4
  9
$DIMLFAC
 40
1.0
  9
$DIMTOFL
 70
     0
  9
$DIMTVP
 40
0.0
  9
$DIMTIX
 70
     0
  9
$DIMSOXD
 70
     0
  9
$DIMSAH
 70
     0
  9
$DIMBLK1
  1

  9
$DIMBLK2
  1

  9
$DIMSTYLE
  2
STANDARD
  9
$DIMCLRD
 70
     0
  9
$DIMCLRE
 70
     0
  9
$DIMCLRT
 70
     0
  9
$DIMTFAC
 40
1.0
  9
$DIMGAP
 40
0.09
  9
$DIMJUST
 70
     0
  9
$DIMSD1
 70
     0
  9
$DIMSD2
 70
     0
  9
$DIMTOLJ
 70
     1
  9
$DIMTZIN
 70
     0
  9
$DIMALTZ
 70
     0
  9
$DIMALTTZ
 70
     0
  9
$DIMFIT
 70
     3
  9
$DIMUPT
 70
     0
  9
$DIMUNIT
 70
     2
  9
$DIMDEC
 70
     4
  9
$DIMTDEC
 70
     4
  9
$DIMALTU
 70
     2
  9
$DIMALTTD
 70
     2
  9
$DIMTXSTY
  7
STANDARD
  9
$DIMAUNIT
 70
     0
  9
$LUNITS
 70
     3
  9
$LUPREC
 70
     4
  9
$SKETCHINC
 40
0.1
  9
$FILLETRAD
 40
0.0
  9
$AUNITS
 70
     0
  9
$AUPREC
 70
     0
  9
$MENU
  1
acad
  9
$ELEVATION
 40
0.0
  9
$PELEVATION
 40
0.0
  9
$THICKNESS
 40
0.0
  9
$LIMCHECK
 70
     0
  9
$BLIPMODE
 70
     1
  9
$CHAMFERA
 40
0.0
  9
$CHAMFERB
 40
0.0
  9
$CHAMFERC
 40
0.0
  9
$CHAMFERD
 40
0.0
  9
$SKPOLY
 70
     0
  9
$TDCREATE
 40
2451681.471238426
  9
$TDUPDATE
 40
2451681.471238426
  9
$TDINDWG
 40
0.0000000000
  9
$TDUSRTIMER
 40
0.0000000000
  9
$USRTIMER
 70
     1
  9
$ANGBASE
 50
0.0
  9
$ANGDIR
 70
     0
  9
$PDMODE
 70
     0
  9
$PDSIZE
 40
0.0
  9
$PLINEWID
 40
0.0
  9
$COORDS
 70
     0
  9
$SPLFRAME
 70
     0
  9
$SPLINETYPE
 70
     6
  9
$SPLINESEGS
 70
     8
  9
$ATTDIA
 70
     0
  9
$ATTREQ
 70
     1
  9
$HANDLING
 70
     1
  9
$HANDSEED
  5
35E
  9
$SURFTAB1
 70
     6
  9
$SURFTAB2
 70
     6
  9
$SURFTYPE
 70
     6
  9
$SURFU
 70
     6
  9
$SURFV
 70
     6
  9
$UCSNAME
  2

  9
$UCSORG
 10
0.0
 20
0.0
 30
0.0
  9
$UCSXDIR
 10
1.0
 20
0.0
 30
0.0
  9
$UCSYDIR
 10
0.0
 20
1.0
 30
0.0
  9
$PUCSNAME
  2

  9
$PUCSORG
 10
0.0
 20
0.0
 30
0.0
  9
$PUCSXDIR
 10
1.0
 20
0.0
 30
0.0
  9
$PUCSYDIR
 10
0.0
 20
1.0
 30
0.0
  9
$USERI1
 70
     0
  9
$USERI2
 70
     0
  9
$USERI3
 70
     0
  9
$USERI4
 70
     0
  9
$USERI5
 70
     0
  9
$USERR1
 40
0.0
  9
$USERR2
 40
0.0
  9
$USERR3
 40
0.0
  9
$USERR4
 40
0.0
  9
$USERR5
 40
0.0
  9
$WORLDVIEW
 70
     1
  9
$SHADEDGE
 70
     3
  9
$SHADEDIF
 70
    70
  9
$TILEMODE
 70
     1
  9
$MAXACTVP
 70
    16
  9
$PINSBASE
 10
0.0
 20
0.0
 30
0.0
  9
$PLIMCHECK
 70
     0
  9
$PEXTMIN
 10
1.000000E+20
 20
1.000000E+20
 30
1.000000E+20
  9
$PEXTMAX
 10
-1.000000E+20
 20
-1.000000E+20
 30
-1.000000E+20
  9
$PLIMMIN
 10
0.0
 20
0.0
  9
$PLIMMAX
 10
12.0
 20
9.0
  9
$UNITMODE
 70
     0
  9
$VISRETAIN
 70
     0
  9
$PLINEGEN
 70
     1
  9
$PSLTSCALE
 70
     0
  9
$TREEDEPTH
 70
  3020
  9
$PICKSTYLE
 70
     1
  9
$CMLSTYLE
  2
STANDARD
  9
$CMLJUST
 70
     0
  9
$CMLSCALE
 40
1.0
  9
$PROXYGRAPHICS
 70
     0
  9
$MEASUREMENT
 70
     0
  0
ENDSEC
  0
SECTION
  2
CLASSES
  0
CLASS
  1
LWPOLYLINE
  2
AcDbPolyline
  3
"AutoCAD"
 90
        0
280
     0
281
     1
  0
CLASS
  1
IMAGE
  2
AcDbRasterImage
  3
ISM
 90
      127
280
     0
281
     1
  0
CLASS
  1
OLE2FRAME
  2
AcDbOle2Frame
  3
""
 90
        0
280
     0
281
     1
  0
CLASS
  1
HATCH
  2
AcDbHatch
  3
"ACAD_SEDONA"
 90
        0
280
     0
281
     1
  0
CLASS
  1
DICTIONARYVAR
  2
AcDbDictionaryVar
  3
"AutoCAD"
 90
        0
280
     0
281
     0
  0
CLASS
  1
RASTERVARIABLES
  2
AcDbRasterVariables
  3
ISM
 90
        0
280
     0
281
     0
  0
CLASS
  1
IMAGEDEF
  2
AcDbRasterImageDef
  3
ISM
 90
        0
280
     0
281
     0
  0
CLASS
  1
IMAGEDEF_REACTOR
  2
AcDbRasterImageDefReactor
  3
ISM
 90
        1
280
     0
281
     0
  0
CLASS
  1
IDBUFFER
  2
AcDbIdBuffer
  3
"Acad"
 90
        0
280
     0
281
     0
  0
CLASS
  1
SPATIAL_FILTER
  2
AcDbSpatialFilter
  3
"Acad"
 90
        0
280
     0
281
     0
  0
CLASS
  1
XRECORD
  2
AcDbXrecord
  3
"<Built In>"
 90
        0
280
     0
281
     0
  0
CLASS
  1
SORTENTSTABLE
  2
AcDbSortentsTable
  3
"AutoCAD"
 90
        0
280
     0
281
     0
  0
CLASS
  1
LAYER_INDEX
  2
AcDbLayerIndex
  3
"Acad"
 90
        0
280
     0
281
     0
  0
CLASS
  1
SPATIAL_INDEX
  2
AcDbSpatialIndex
  3
"Acad"
 90
        0
280
     0
281
     0
  0
CLASS
  1
OBJECT_PTR
  2
CAseDLPNTableRecord
  3
"ASE-LPNTableRecord"
 90
        1
280
     0
281
     0
  0
ENDSEC
  0
SECTION
  2
TABLES
  0
TABLE
  2
VPORT
  5
7
100
AcDbSymbolTable
 70
     1
  0
VPORT
  5
15
100
AcDbSymbolTableRecord
100
AcDbViewportTableRecord
  2
*ACTIVE
 70
     0
 10
0.0
 20
0.0
 11
1.0
 21
1.0
 12
0.0
 22
0.0
 13
0.0
 23
0.0
 14
1.0
 24
1.0
 15
0.0
 25
0.0
 16
0.0
 26
0.0
 36
1.0
 17
0.0
 27
0.0
 37
0.0
 40
11.0
 41
0.688564
 42
50.0
 43
0.0
 44
0.0
 50
0.0
 51
0.0
 71
     0
 72
   100
 73
     1
 74
     1
 75
     0
 76
     0
 77
     0
 78
     0
  0
ENDTAB
  0
TABLE
  2
LTYPE
  5
4
100
AcDbSymbolTable
 70
    13
  0
LTYPE
  5
11
100
AcDbSymbolTableRecord
100
AcDbLinetypeTableRecord
  2
BYBLOCK
 70
     0
  3

 72
    65
 73
     0
 40
0.0
  0
LTYPE
  5
12
100
AcDbSymbolTableRecord
100
AcDbLinetypeTableRecord
  2
BYLAYER
 70
     0
  3

 72
    65
 73
     0
 40
0.0
  0
LTYPE
  5
13
100
AcDbSymbolTableRecord
100
AcDbLinetypeTableRecord
  2
CONTINUOUS
 70
     0
  3
Solid line
 72
    65
 73
     0
 40
0.0
  0
LTYPE
  5
1D
100
AcDbSymbolTableRecord
100
AcDbLinetypeTableRecord
  2
VECTORWORKS_DASH_01
 70
     0
  3
(unavailable)
 72
    65
 73
     2
 40
0.083328
 49
0.041656
 74
     0
 49
-0.041672
 74
     0
  0
LTYPE
  5
1E
100
AcDbSymbolTableRecord
100
AcDbLinetypeTableRecord
  2
VECTORWORKS_DASH_02
 70
     0
  3
(unavailable)
 72
    65
 73
     2
 40
0.138885
 49
0.097214
 74
     0
 49
-0.041672
 74
     0
  0
LTYPE
  5
1F
100
AcDbSymbolTableRecord
100
AcDbLinetypeTableRecord
  2
VECTORWORKS_DASH_03
 70
     0
  3
(unavailable)
 72
    65
 73
     2
 40
0.25
 49
0.208328
 74
     0
 49
-0.041672
 74
     0
  0
LTYPE
  5
20
100
AcDbSymbolTableRecord
100
AcDbLinetypeTableRecord
  2
VECTORWORKS_DASH_04
 70
     0
  3
(unavailable)
 72
    65
 73
     2
 40
0.305542
 49
0.263885
 74
     0
 49
-0.041656
 74
     0
  0
LTYPE
  5
21
100
AcDbSymbolTableRecord
100
AcDbLinetypeTableRecord
  2
VECTORWORKS_DASH_05
 70
     0
  3
(unavailable)
 72
    65
 73
     2
 40
0.041656
 49
0.013885
 74
     0
 49
-0.027771
 74
     0
  0
LTYPE
  5
22
100
AcDbSymbolTableRecord
100
AcDbLinetypeTableRecord
  2
VECTORWORKS_DASH_06
 70
     0
  3
(unavailable)
 72
    65
 73
     4
 40
0.208328
 49
0.125
 74
     0
 49
-0.041656
 74
     0
 49
0.013885
 74
     0
 49
-0.027786
 74
     0
  0
LTYPE
  5
23
100
AcDbSymbolTableRecord
100
AcDbLinetypeTableRecord
  2
VECTORWORKS_DASH_07
 70
     0
  3
(unavailable)
 72
    65
 73
     6
 40
0.375
 49
0.125
 74
     0
 49
-0.041656
 74
     0
 49
0.125
 74
     0
 49
-0.041672
 74
     0
 49
0.013885
 74
     0
 49
-0.027786
 74
     0
  0
LTYPE
  5
24
100
AcDbSymbolTableRecord
100
AcDbLinetypeTableRecord
  2
VECTORWORKS_DASH_08
 70
     0
  3
(unavailable)
 72
    65
 73
     6
 40
0.25
 49
0.125
 74
     0
 49
-0.041656
 74
     0
 49
0.013885
 74
     0
 49
-0.027786
 74
     0
 49
0.013885
 74
     0
 49
-0.027786
 74
     0
  0
LTYPE
  5
25
100
AcDbSymbolTableRecord
100
AcDbLinetypeTableRecord
  2
VECTORWORKS_DASH_09
 70
     0
  3
(unavailable)
 72
    65
 73
     4
 40
1.0
 49
0.75
 74
     0
 49
-0.055557
 74
     0
 49
0.138885
 74
     0
 49
-0.055557
 74
     0
  0
LTYPE
  5
26
100
AcDbSymbolTableRecord
100
AcDbLinetypeTableRecord
  2
VECTORWORKS_DASH_10
 70
     0
  3
(unavailable)
 72
    65
 73
     6
 40
1.1875
 49
0.75
 74
     0
 49
-0.055557
 74
     0
 49
0.138885
 74
     0
 49
-0.055557
 74
     0
 49
0.125
 74
     0
 49
-0.0625
 74
     0
  0
ENDTAB
  0
TABLE
  2
LAYER
  5
2
100
AcDbSymbolTable
 70
     3
  0
LAYER
  5
14
100
AcDbSymbolTableRecord
100
AcDbLayerTableRecord
  2
0
 70
     0
 62
     7
  6
CONTINUOUS
  0
LAYER
  5
27
100
AcDbSymbolTableRecord
100
AcDbLayerTableRecord
  2
NONE
 70
    64
 62
     7
  6
CONTINUOUS
  0
LAYER
  5
28
100
AcDbSymbolTableRecord
100
AcDbLayerTableRecord
  2
DIMENSION
 70
    64
 62
     7
  6
CONTINUOUS
  0
ENDTAB
  0
TABLE
  2
STYLE
  5
3
100
AcDbSymbolTable
 70
     1
  0
STYLE
  5
17
100
AcDbSymbolTableRecord
100
AcDbTextStyleTableRecord
  2
STANDARD
 70
     0
 40
0.0
 41
1.0
 50
0.0
 71
     0
 42
0.0
  3
txt
  4

  0
ENDTAB
  0
TABLE
  2
VIEW
  5
5
100
AcDbSymbolTable
 70
     0
  0
ENDTAB
  0
TABLE
  2
UCS
  5
6
100
AcDbSymbolTable
 70
     0
  0
ENDTAB
  0
TABLE
  2
APPID
  5
8
100
AcDbSymbolTable
 70
     1
  0
APPID
  5
16
100
AcDbSymbolTableRecord
100
AcDbRegAppTableRecord
  2
ACAD
 70
     0
  0
ENDTAB
  0
TABLE
  2
DIMSTYLE
  5
9
100
AcDbSymbolTable
 70
     1
  0
DIMSTYLE
105
18
100
AcDbSymbolTableRecord
100
AcDbDimStyleTableRecord
  2
STANDARD
 70
     0
  3

  4

  5

  6

  7

 40
1.0
 41
0.18
 42
0.0625
 43
0.38
 44
0.18
 45
0.0
 46
0.0
 47
0.0
 48
0.0
140
0.18
141
0.09
142
0.0
143
25.4
144
1.0
145
0.0
146
1.0
147
0.09
 71
     0
 72
     0
 73
     1
 74
     1
 75
     0
 76
     0
 77
     0
 78
     0
170
     0
171
     2
172
     0
173
     0
174
     0
175
     0
176
     0
177
     0
178
     0
270
     2
271
     4
272
     4
273
     2
274
     2
340
17
275
     0
280
     0
281
     0
282
     0
283
     1
284
     0
285
     0
286
     0
287
     0
288
     0
  0
ENDTAB
  0
TABLE
  2
BLOCK_RECORD
  5
1
100
AcDbSymbolTable
 70
     8
  0
BLOCK_RECORD
  5
A
100
AcDbSymbolTableRecord
100
AcDbBlockTableRecord
  2
*MODEL_SPACE
  0
BLOCK_RECORD
  5
B
100
AcDbSymbolTableRecord
100
AcDbBlockTableRecord
  2
*PAPER_SPACE
  0
BLOCK_RECORD
  5
30
100
AcDbSymbolTableRecord
100
AcDbBlockTableRecord
  2
*G0
  0
BLOCK_RECORD
  5
2F
100
AcDbSymbolTableRecord
100
AcDbBlockTableRecord
  2
*G1
  0
BLOCK_RECORD
  5
2E
100
AcDbSymbolTableRecord
100
AcDbBlockTableRecord
  2
*G2
  0
BLOCK_RECORD
  5
2D
100
AcDbSymbolTableRecord
100
AcDbBlockTableRecord
  2
*G3
  0
BLOCK_RECORD
  5
2C
100
AcDbSymbolTableRecord
100
AcDbBlockTableRecord
  2
*G4
  0
BLOCK_RECORD
  5
2B
100
AcDbSymbolTableRecord
100
AcDbBlockTableRecord
  2
*G5
  0
BLOCK_RECORD
  5
2A
100
AcDbSymbolTableRecord
100
AcDbBlockTableRecord
  2
*G6
  0
BLOCK_RECORD
  5
29
100
AcDbSymbolTableRecord
100
AcDbBlockTableRecord
  2
*G7
  0
ENDTAB
  0
ENDSEC
  0
SECTION
  2
BLOCKS
  0
BLOCK
  5
D
100
AcDbEntity
  8
0
100
AcDbBlockBegin
  2
*MODEL_SPACE
 70
     0
 10
0.0
 20
0.0
 30
0.0
  3
*MODEL_SPACE
  1

  0
ENDBLK
  5
E
100
AcDbEntity
  8
0
100
AcDbBlockEnd
  0
BLOCK
  5
F
100
AcDbEntity
 67
     1
  8
0
100
AcDbBlockBegin
  2
*PAPER_SPACE
 70
     0
 10
0.0
 20
0.0
 30
0.0
  3
*PAPER_SPACE
  1

  0
ENDBLK
  5
10
100
AcDbEntity
 67
     1
  8
0
100
AcDbBlockEnd
  0
BLOCK
  5
31
100
AcDbEntity
  8
NONE
100
AcDbBlockBegin
  2
*G0
 70
     1
 10
0.0
 20
0.0
 30
0.0
  3

  1

  0
SPLINE
  5
32
100
AcDbEntity
  8
NONE
  6
CONTINUOUS
 62
     6
100
AcDbSpline
210
0.0
220
0.0
230
1.0
 70
     9
 71
     3
 72
    41
 73
    37
 74
     0
 42
0.000001
 43
0.000001
 40
0.0
 40
0.0
 40
0.0
 40
0.0
 40
1.0
 40
1.0
 40
1.0
 40
2.0
 40
2.0
 40
2.0
 40
3.0
 40
3.0
 40
3.0
 40
4.0
 40
4.0
 40
4.0
 40
5.0
 40
5.0
 40
5.0
 40
6.0
 40
6.0
 40
6.0
 40
7.0
 40
7.0
 40
7.0
 40
8.0
 40
8.0
 40
8.0
 40
9.0
 40
9.0
 40
9.0
 40
10.0
 40
10.0
 40
10.0
 40
11.0
 40
11.0
 40
11.0
 40
12.0
 40
12.0
 40
12.0
 40
12.0
 10
0.6527778
 20
-0.953815
 30
0.0
 10
0.6785613
 20
-0.9383087
 30
0.0
 10
0.7063390000000001
 20
-0.9305555
 30
0.0
 10
0.7361111
 20
-0.9305555
 30
0.0
 10
0.7658832
 20
-0.9305555
 30
0.0
 10
0.7936609999999999
 20
-0.9383087
 30
0.0
 10
0.8194444
 20
-0.953815
 30
0.0
 10
0.8452279
 20
-0.9693213000000001
 30
0.0
 10
0.8655626
 20
-0.9905034
 30
0.0
 10
0.8804487
 20
-1.0173611
 30
0.0
 10
0.8953348
 20
-1.0442187999999999
 30
0.0
 10
0.9027778
 20
-1.0731539000000001
 30
0.0
 10
0.9027778
 20
-1.1041666000000001
 30
0.0
 10
0.9027778
 20
-1.1351792999999999
 30
0.0
 10
0.8953348
 20
-1.1641144999999999
 30
0.0
 10
0.8804487
 20
-1.1909722
 30
0.0
 10
0.8655626
 20
-1.2178298999999999
 30
0.0
 10
0.8452279
 20
-1.2390118999999999
 30
0.0
 10
0.8194444
 20
-1.2545181999999999
 30
0.0
 10
0.7936609999999999
 20
-1.2700244999999999
 30
0.0
 10
0.7658832
 20
-1.2777776999999999
 30
0.0
 10
0.7361111
 20
-1.2777776999999999
 30
0.0
 10
0.7063390000000001
 20
-1.2777776999999999
 30
0.0
 10
0.6785613
 20
-1.2700244999999999
 30
0.0
 10
0.6527778
 20
-1.2545181999999999
 30
0.0
 10
0.6269944
 20
-1.2390118999999999
 30
0.0
 10
0.6066597
 20
-1.2178298999999999
 30
0.0
 10
0.5917736
 20
-1.1909722
 30
0.0
 10
0.5768875
 20
-1.1641144999999999
 30
0.0
 10
0.5694445
 20
-1.1351792999999999
 30
0.0
 10
0.5694445
 20
-1.1041666000000001
 30
0.0
 10
0.5694445
 20
-1.0731539000000001
 30
0.0
 10
0.5768875
 20
-1.0442187999999999
 30
0.0
 10
0.5917736
 20
-1.0173611
 30
0.0
 10
0.6066597
 20
-0.9905034
 30
0.0
 10
0.6269944
 20
-0.9693213000000001
 30
0.0
 10
0.6527778
 20
-0.953815
 30
0.0
  0
LWPOLYLINE
  5
33
100
AcDbEntity
  8
NONE
  6
CONTINUOUS
 62
     6
100
AcDbPolyline
 90
        5
 70
   129
 10
0.625
 20
-1.111111
 42
-0.414214
 10
0.736111
 20
-1.0
 42
-0.414214
 10
0.847222
 20
-1.111111
 42
-0.414214
 10
0.736111
 20
-1.222222
 42
-0.414214
 10
0.625
 20
-1.111111
 42
-0.414214
  0
ENDBLK
  5
34
100
AcDbEntity
  8
NONE
100
AcDbBlockEnd
  0
BLOCK
  5
35
100
AcDbEntity
  8
NONE
100
AcDbBlockBegin
  2
*G1
 70
     1
 10
0.0
 20
0.0
 30
0.0
  3

  1

  0
LINE
  5
36
100
AcDbEntity
  8
NONE
  6
CONTINUOUS
 62
     9
100
AcDbLine
 10
-2.486111
 20
1.361111
 30
0.0
 11
-2.277778
 21
1.361111
 31
0.0
  0
LINE
  5
37
100
AcDbEntity
  8
NONE
  6
CONTINUOUS
 62
     8
100
AcDbLine
 10
-2.291667
 20
1.375
 30
0.0
 11
-2.416667
 21
1.486111
 31
0.0
  0
ARC
  5
38
100
AcDbEntity
  8
NONE
  6
CONTINUOUS
 62
     6
100
AcDbCircle
 10
-2.291667
 20
1.375
 30
0.0
 40
0.166667
100
AcDbArc
 50
93.000015
 51
180.0
  0
ENDBLK
  5
39
100
AcDbEntity
  8
NONE
100
AcDbBlockEnd
  0
BLOCK
  5
3A
100
AcDbEntity
  8
NONE
100
AcDbBlockBegin
  2
*G2
 70
     1
 10
0.0
 20
0.0
 30
0.0
  3

  1

  0
LINE
  5
3B
100
AcDbEntity
  8
NONE
  6
CONTINUOUS
 62
     6
100
AcDbLine
 10
0.125
 20
1.875
 30
0.0
 11
0.847222
 21
1.5
 31
0.0
  0
LINE
  5
3C
100
AcDbEntity
  8
NONE
  6
CONTINUOUS
 62
     6
100
AcDbLine
 10
0.847222
 20
1.5
 30
0.0
 11
1.25
 21
1.5
 31
0.0
  0
LINE
  5
3D
100
AcDbEntity
  8
NONE
  6
CONTINUOUS
 62
     6
100
AcDbLine
 10
0.847222
 20
1.5
 30
0.0
 11
0.847222
 21
1.041667
 31
0.0
  0
ARC
  5
3E
100
AcDbEntity
  8
NONE
  6
CONTINUOUS
 62
     6
100
AcDbCircle
 10
0.763889
 20
1.527778
 30
0.0
 40
0.5
100
AcDbArc
 50
280.000001
 51
356.999998
  0
ARC
  5
3F
100
AcDbEntity
  8
NONE
  6
CONTINUOUS
 62
     6
100
AcDbCircle
 10
0.763889
 20
1.527778
 30
0.0
 40
0.458333
100
AcDbArc
 50
284.000006
 51
351.999995
  0
LINE
  5
40
100
AcDbEntity
  8
NONE
  6
CONTINUOUS
 62
     6
100
AcDbLine
 10
0.875
 20
1.069444
 30
0.0
 11
0.875
 21
1.472222
 31
0.0
  0
LINE
  5
41
100
AcDbEntity
  8
NONE
  6
CONTINUOUS
 62
     6
100
AcDbLine
 10
0.875
 20
1.472222
 30
0.0
 11
1.222222
 21
1.472222
 31
0.0
  0
LINE
  5
42
100
AcDbEntity
  8
NONE
  6
CONTINUOUS
 62
     6
100
AcDbLine
 10
0.597222
 20
1.625
 30
0.0
 11
0.597222
 21
1.208333
 31
0.0
  0
LINE
  5
43
100
AcDbEntity
  8
NONE
  6
CONTINUOUS
 62
     6
100
AcDbLine
 10
0.597222
 20
1.625
 30
0.0
 11
0.944445
 21
1.625
 31
0.0
  0
LINE
  5
44
100
AcDbEntity
  8
NONE
  6
CONTINUOUS
 62
     6
100
AcDbLine
 10
0.847222
 20
1.041667
 30
0.0
 11
0.125
 21
1.541667
 31
0.0
  0
LINE
  5
45
100
AcDbEntity
  8
NONE
  6
CONTINUOUS
 62
     6
100
AcDbLine
 10
1.25
 20
1.5
 30
0.0
 11
0.375
 21
1.875
 31
0.0
  0
LINE
  5
46
100
AcDbEntity
  8
NONE
  6
CONTINUOUS
 62
     6
100
AcDbLine
 10
0.569445
 20
1.638889
 30
0.0
 11
0.569445
 21
1.236111
 31
0.0
  0
LINE
  5
47
100
AcDbEntity
  8
NONE
  6
CONTINUOUS
 62
     6
100
AcDbLine
 10
0.569445
 20
1.638889
 30
0.0
 11
0.916667
 21
1.638889
 31
0.0
  0
LINE
  5
48
100
AcDbEntity
  8
NONE
  6
CONTINUOUS
 62
     6
100
AcDbLine
 10
0.347222
 20
1.763889
 30
0.0
 11
0.347222
 21
1.375
 31
0.0
  0
LINE
  5
49
100
AcDbEntity
  8
NONE
  6
CONTINUOUS
 62
     6
100
AcDbLine
 10
0.361111
 20
1.763889
 30
0.0
 11
0.652778
 21
1.763889
 31
0.0
  0
LINE
  5
4A
100
AcDbEntity
  8
NONE
  6
CONTINUOUS
 62
     6
100
AcDbLine
 10
0.333333
 20
1.777778
 30
0.0
 11
0.333333
 21
1.402778
 31
0.0
  0
LINE
  5
4B
100
AcDbEntity
  8
NONE
  6
CONTINUOUS
 62
     6
100
AcDbLine
 10
0.333333
 20
1.777778
 30
0.0
 11
0.625
 21
1.777778
 31
0.0
  0
LINE
  5
4C
100
AcDbEntity
  8
NONE
  6
CONTINUOUS
 62
     6
100
AcDbLine
 10
0.125
 20
1.875
 30
0.0
 11
0.125
 21
1.541667
 31
0.0
  0
LINE
  5
4D
100
AcDbEntity
  8
NONE
  6
CONTINUOUS
 62
     6
100
AcDbLine
 10
0.125
 20
1.875
 30
0.0
 11
0.375
 21
1.875
 31
0.0
  0
LINE
  5
4E
100
AcDbEntity
  8
NONE
  6
CONTINUOUS
 62
     6
100
AcDbLine
 10
1.041667
 20
1.430556
 30
0.0
 11
1.041667
 21
1.291667
 31
0.0
  0
LINE
  5
4F
100
AcDbEntity
  8
NONE
  6
CONTINUOUS
 62
     6
100
AcDbLine
 10
1.166667
 20
1.430556
 30
0.0
 11
1.166667
 21
1.416667
 31
0.0
  0
LINE
  5
50
100
AcDbEntity
  8
NONE
  6
CONTINUOUS
 62
     6
100
AcDbLine
 10
1.166667
 20
1.416667
 30
0.0
 11
1.069444
 21
1.416667
 31
0.0
  0
LINE
  5
51
100
AcDbEntity
  8
NONE
  6
CONTINUOUS
 62
     6
100
AcDbLine
 10
1.069444
 20
1.416667
 30
0.0
 11
1.069444
 21
1.291667
 31
0.0
  0
LINE
  5
52
100
AcDbEntity
  8
NONE
  6
CONTINUOUS
 62
     6
100
AcDbLine
 10
1.069444
 20
1.291667
 30
0.0
 11
1.041667
 21
1.291667
 31
0.0
  0
LINE
  5
53
100
AcDbEntity
  8
NONE
  6
CONTINUOUS
 62
     6
100
AcDbLine
 10
1.041667
 20
1.291667
 30
0.0
 11
0.875
 21
1.388889
 31
0.0
  0
LINE
  5
54
100
AcDbEntity
  8
NONE
  6
CONTINUOUS
 62
     6
100
AcDbLine
 10
1.013889
 20
1.180556
 30
0.0
 11
0.930556
 21
1.222222
 31
0.0
  0
LINE
  5
55
100
AcDbEntity
  8
NONE
  6
CONTINUOUS
 62
     6
100
AcDbLine
 10
1.0
 20
1.208333
 30
0.0
 11
0.902778
 21
1.263889
 31
0.0
  0
LINE
  5
56
100
AcDbEntity
  8
NONE
  6
CONTINUOUS
 62
     6
100
AcDbLine
 10
1.041667
 20
1.430556
 30
0.0
 11
1.166667
 21
1.430556
 31
0.0
  0
LINE
  5
57
100
AcDbEntity
  8
NONE
  6
CONTINUOUS
 62
     6
100
AcDbLine
 10
1.041667
 20
1.430556
 30
0.0
 11
0.944445
 21
1.472222
 31
0.0
  0
LINE
  5
58
100
AcDbEntity
  8
NONE
  6
CONTINUOUS
 62
     6
100
AcDbLine
 10
1.166667
 20
1.430556
 30
0.0
 11
1.069444
 21
1.472222
 31
0.0
  0
LINE
  5
59
100
AcDbEntity
  8
NONE
  6
CONTINUOUS
 62
     6
100
AcDbLine
 10
0.180556
 20
1.875
 30
0.0
 11
0.138889
 21
1.902778
 31
0.0
  0
LINE
  5
5A
100
AcDbEntity
  8
NONE
  6
CONTINUOUS
 62
     6
100
AcDbLine
 10
0.138889
 20
1.902778
 30
0.0
 11
0.208333
 21
1.902778
 31
0.0
  0
LINE
  5
5B
100
AcDbEntity
  8
NONE
  6
CONTINUOUS
 62
     6
100
AcDbLine
 10
0.208333
 20
1.902778
 30
0.0
 11
0.263889
 21
1.875
 31
0.0
  0
LINE
  5
5C
100
AcDbEntity
  8
NONE
  6
CONTINUOUS
 62
     6
100
AcDbLine
 10
0.138889
 20
1.902778
 30
0.0
 11
0.138889
 21
1.875
 31
0.0
  0
ENDBLK
  5
5D
100
AcDbEntity
  8
NONE
100
AcDbBlockEnd
  0
BLOCK
  5
5E
100
AcDbEntity
  8
NONE
100
AcDbBlockBegin
  2
*G3
 70
     1
 10
0.0
 20
0.0
 30
0.0
  3

  1

  0
LINE
  5
5F
100
AcDbEntity
  8
NONE
  6
CONTINUOUS
 62
     6
100
AcDbLine
 10
-1.680556
 20
-0.916667
 30
0.0
 11
-1.680556
 21
-2.0
 31
0.0
  0
LINE
  5
60
100
AcDbEntity
  8
NONE
  6
CONTINUOUS
 62
     6
100
AcDbLine
 10
-2.0
 20
-0.916667
 30
0.0
 11
-2.0
 21
-2.0
 31
0.0
  0
LINE
  5
61
100
AcDbEntity
  8
NONE
  6
CONTINUOUS
 62
     6
100
AcDbLine
 10
-2.0
 20
-1.013889
 30
0.0
 11
-1.888889
 21
-0.916667
 31
0.0
  0
LINE
  5
62
100
AcDbEntity
  8
NONE
  6
CONTINUOUS
 62
     6
100
AcDbLine
 10
-2.0
 20
-1.138889
 30
0.0
 11
-1.763889
 21
-0.916667
 31
0.0
  0
LINE
  5
63
100
AcDbEntity
  8
NONE
  6
CONTINUOUS
 62
     6
100
AcDbLine
 10
-2.0
 20
-1.263889
 30
0.0
 11
-1.680556
 21
-0.958333
 31
0.0
  0
LINE
  5
64
100
AcDbEntity
  8
NONE
  6
CONTINUOUS
 62
     6
100
AcDbLine
 10
-2.0
 20
-1.388889
 30
0.0
 11
-1.680556
 21
-1.083333
 31
0.0
  0
LINE
  5
65
100
AcDbEntity
  8
NONE
  6
CONTINUOUS
 62
     6
100
AcDbLine
 10
-2.0
 20
-1.513889
 30
0.0
 11
-1.680556
 21
-1.208333
 31
0.0
  0
LINE
  5
66
100
AcDbEntity
  8
NONE
  6
CONTINUOUS
 62
     6
100
AcDbLine
 10
-2.0
 20
-1.638889
 30
0.0
 11
-1.680556
 21
-1.333333
 31
0.0
  0
LINE
  5
67
100
AcDbEntity
  8
NONE
  6
CONTINUOUS
 62
     6
100
AcDbLine
 10
-2.0
 20
-1.763889
 30
0.0
 11
-1.680556
 21
-1.458333
 31
0.0
  0
LINE
  5
68
100
AcDbEntity
  8
NONE
  6
CONTINUOUS
 62
     6
100
AcDbLine
 10
-2.0
 20
-1.888889
 30
0.0
 11
-1.680556
 21
-1.583333
 31
0.0
  0
LINE
  5
69
100
AcDbEntity
  8
NONE
  6
CONTINUOUS
 62
     6
100
AcDbLine
 10
-2.0
 20
-1.263889
 30
0.0
 11
-1.680556
 21
-0.958333
 31
0.0
  0
LINE
  5
6A
100
AcDbEntity
  8
NONE
  6
CONTINUOUS
 62
     6
100
AcDbLine
 10
-2.0
 20
-1.388889
 30
0.0
 11
-1.680556
 21
-1.083333
 31
0.0
  0
LINE
  5
6B
100
AcDbEntity
  8
NONE
  6
CONTINUOUS
 62
     6
100
AcDbLine
 10
-2.0
 20
-1.513889
 30
0.0
 11
-1.680556
 21
-1.208333
 31
0.0
  0
LINE
  5
6C
100
AcDbEntity
  8
NONE
  6
CONTINUOUS
 62
     6
100
AcDbLine
 10
-2.0
 20
-1.638889
 30
0.0
 11
-1.680556
 21
-1.333333
 31
0.0
  0
LINE
  5
6D
100
AcDbEntity
  8
NONE
  6
CONTINUOUS
 62
     6
100
AcDbLine
 10
-2.0
 20
-1.763889
 30
0.0
 11
-1.680556
 21
-1.458333
 31
0.0
  0
LINE
  5
6E
100
AcDbEntity
  8
NONE
  6
CONTINUOUS
 62
     6
100
AcDbLine
 10
-2.0
 20
-1.888889
 30
0.0
 11
-1.680556
 21
-1.583333
 31
0.0
  0
LINE
  5
6F
100
AcDbEntity
  8
NONE
  6
CONTINUOUS
 62
     6
100
AcDbLine
 10
-1.972222
 20
-2.0
 30
0.0
 11
-1.680556
 21
-1.708333
 31
0.0
  0
LINE
  5
70
100
AcDbEntity
  8
NONE
  6
CONTINUOUS
 62
     6
100
AcDbLine
 10
-1.847222
 20
-2.0
 30
0.0
 11
-1.680556
 21
-1.833333
 31
0.0
  0
LINE
  5
71
100
AcDbEntity
  8
NONE
  6
CONTINUOUS
 62
     6
100
AcDbLine
 10
-1.722222
 20
-2.0
 30
0.0
 11
-1.680556
 21
-1.958333
 31
0.0
  0
ENDBLK
  5
72
100
AcDbEntity
  8
NONE
100
AcDbBlockEnd
  0
BLOCK
  5
73
100
AcDbEntity
  8
NONE
100
AcDbBlockBegin
  2
*G4
 70
     1
 10
0.0
 20
0.0
 30
0.0
  3

  1

  0
POLYLINE
  5
74
100
AcDbEntity
  8
NONE
  6
CONTINUOUS
 62
     6
100
AcDb2dPolyline
 66
     1
 10
0.0
 20
0.0
 30
0.0
 40
0.014
 41
0.014
 75
     5
  0
VERTEX
  5
75
100
AcDbEntity
  8
NONE
  6
CONTINUOUS
 62
     6
100
AcDbVertex
100
AcDb2dVertex
 10
0.777778
 20
-1.694444
 30
0.0
  0
VERTEX
  5
76
100
AcDbEntity
  8
NONE
  6
CONTINUOUS
 62
     6
100
AcDbVertex
100
AcDb2dVertex
 10
1.25
 20
-1.125
 30
0.0
  0
VERTEX
  5
77
100
AcDbEntity
  8
NONE
  6
CONTINUOUS
 62
     6
100
AcDbVertex
100
AcDb2dVertex
 10
1.333333
 20
-1.194444
 30
0.0
  0
VERTEX
  5
78
100
AcDbEntity
  8
NONE
  6
CONTINUOUS
 62
     6
100
AcDbVertex
100
AcDb2dVertex
 10
0.847222
 20
-1.763889
 30
0.0
  0
VERTEX
  5
79
100
AcDbEntity
  8
NONE
  6
CONTINUOUS
 62
     6
100
AcDbVertex
100
AcDb2dVertex
 10
0.847222
 20
-1.763889
 30
0.0
  0
VERTEX
  5
7A
100
AcDbEntity
  8
NONE
  6
CONTINUOUS
 62
     6
100
AcDbVertex
100
AcDb2dVertex
 10
0.777778
 20
-1.694444
 30
0.0
  0
SEQEND
  5
7B
100
AcDbEntity
  8
NONE
  6
CONTINUOUS
  0
LINE
  5
7C
100
AcDbEntity
  8
NONE
  6
CONTINUOUS
 62
     6
100
AcDbLine
 10
1.013889
 20
-1.416667
 30
0.0
 11
1.097222
 21
-1.486111
 31
0.0
  0
ENDBLK
  5
7D
100
AcDbEntity
  8
NONE
100
AcDbBlockEnd
  0
BLOCK
  5
7E
100
AcDbEntity
  8
NONE
100
AcDbBlockBegin
  2
*G5
 70
     1
 10
0.0
 20
0.0
 30
0.0
  3

  1

  0
POLYLINE
  5
7F
100
AcDbEntity
  8
NONE
  6
CONTINUOUS
 62
     6
100
AcDb2dPolyline
 66
     1
 10
0.0
 20
0.0
 30
0.0
 40
0.014
 41
0.014
 75
     5
  0
VERTEX
  5
80
100
AcDbEntity
  8
NONE
  6
CONTINUOUS
 62
     6
100
AcDbVertex
100
AcDb2dVertex
 10
1.986111
 20
-1.125
 30
0.0
  0
VERTEX
  5
81
100
AcDbEntity
  8
NONE
  6
CONTINUOUS
 62
     6
100
AcDbVertex
100
AcDb2dVertex
 10
2.486111
 20
-1.694444
 30
0.0
  0
VERTEX
  5
82
100
AcDbEntity
  8
NONE
  6
CONTINUOUS
 62
     6
100
AcDbVertex
100
AcDb2dVertex
 10
2.402778
 20
-1.763889
 30
0.0
  0
VERTEX
  5
83
100
AcDbEntity
  8
NONE
  6
CONTINUOUS
 62
     6
100
AcDbVertex
100
AcDb2dVertex
 10
1.902778
 20
-1.194444
 30
0.0
  0
VERTEX
  5
84
100
AcDbEntity
  8
NONE
  6
CONTINUOUS
 62
     6
100
AcDbVertex
100
AcDb2dVertex
 10
1.902778
 20
-1.194444
 30
0.0
  0
VERTEX
  5
85
100
AcDbEntity
  8
NONE
  6
CONTINUOUS
 62
     6
100
AcDbVertex
100
AcDb2dVertex
 10
1.986111
 20
-1.125
 30
0.0
  0
SEQEND
  5
86
100
AcDbEntity
  8
NONE
  6
CONTINUOUS
  0
LINE
  5
87
100
AcDbEntity
  8
NONE
  6
CONTINUOUS
 62
     6
100
AcDbLine
 10
2.236111
 20
-1.416667
 30
0.0
 11
2.152778
 21
-1.486111
 31
0.0
  0
ENDBLK
  5
88
100
AcDbEntity
  8
NONE
100
AcDbBlockEnd
  0
BLOCK
  5
89
100
AcDbEntity
  8
NONE
100
AcDbBlockBegin
  2
*G6
 70
     1
 10
0.0
 20
0.0
 30
0.0
  3

  1

  0
LINE
  5
8A
100
AcDbEntity
  8
NONE
  6
CONTINUOUS
 62
     6
100
AcDbLine
 10
0.375
 20
3.347222
 30
0.0
 11
0.375
 21
2.305556
 31
0.0
  0
LINE
  5
8B
100
AcDbEntity
  8
NONE
  6
CONTINUOUS
 62
     6
100
AcDbLine
 10
0.652778
 20
3.25
 30
0.0
 11
0.652778
 21
2.194444
 31
0.0
  0
LINE
  5
8C
100
AcDbEntity
  8
NONE
  6
CONTINUOUS
 62
     6
100
AcDbLine
 10
0.375
 20
2.305556
 30
0.0
 11
1.097222
 21
2.0
 31
0.0
  0
LINE
  5
8D
100
AcDbEntity
  8
NONE
  6
CONTINUOUS
 62
     6
100
AcDbLine
 10
0.75
 20
3.222222
 30
0.0
 11
1.041667
 21
3.305556
 31
0.0
  0
LINE
  5
8E
100
AcDbEntity
  8
NONE
  6
CONTINUOUS
 62
     6
100
AcDbLine
 10
1.041667
 20
3.333333
 30
0.0
 11
0.694445
 21
3.430556
 31
0.0
  0
LINE
  5
8F
100
AcDbEntity
  8
NONE
  6
CONTINUOUS
 62
     6
100
AcDbLine
 10
0.694445
 20
3.430556
 30
0.0
 11
0.402778
 21
3.375
 31
0.0
  0
LINE
  5
90
100
AcDbEntity
  8
NONE
  6
CONTINUOUS
 62
     6
100
AcDbLine
 10
0.763889
 20
3.180556
 30
0.0
 11
1.083333
 21
2.055556
 31
0.0
  0
LINE
  5
91
100
AcDbEntity
  8
NONE
  6
CONTINUOUS
 62
     6
100
AcDbLine
 10
0.819445
 20
3.180556
 30
0.0
 11
1.125
 21
2.097222
 31
0.0
  0
LINE
  5
92
100
AcDbEntity
  8
NONE
  6
CONTINUOUS
 62
     6
100
AcDbLine
 10
1.041667
 20
3.333333
 30
0.0
 11
1.416667
 21
2.180556
 31
0.0
  0
LINE
  5
93
100
AcDbEntity
  8
NONE
  6
CONTINUOUS
 62
     6
100
AcDbLine
 10
1.416667
 20
2.180556
 30
0.0
 11
1.111111
 21
2.0
 31
0.0
  0
LINE
  5
94
100
AcDbEntity
  8
NONE
  6
CONTINUOUS
 62
     6
100
AcDbLine
 10
0.388889
 20
3.347222
 30
0.0
 11
0.75
 21
3.222222
 31
0.0
  0
ARC
  5
95
100
AcDbEntity
  8
NONE
  6
CONTINUOUS
 62
     6
100
AcDbCircle
 10
0.402778
 20
3.354167
 30
0.0
 40
0.027778
100
AcDbArc
 50
111.999931
 51
239.00002
  0
LINE
  5
96
100
AcDbEntity
  8
NONE
  6
CONTINUOUS
 62
     6
100
AcDbLine
 10
0.458333
 20
3.361111
 30
0.0
 11
0.680556
 21
3.402778
 31
0.0
  0
LINE
  5
97
100
AcDbEntity
  8
NONE
  6
CONTINUOUS
 62
     6
100
AcDbLine
 10
0.680556
 20
3.402778
 30
0.0
 11
1.0
 21
3.319444
 31
0.0
  0
LINE
  5
98
100
AcDbEntity
  8
NONE
  6
CONTINUOUS
 62
     6
100
AcDbLine
 10
1.0
 20
3.319444
 30
0.0
 11
0.75
 21
3.25
 31
0.0
  0
LINE
  5
99
100
AcDbEntity
  8
NONE
  6
CONTINUOUS
 62
     6
100
AcDbLine
 10
0.75
 20
3.25
 30
0.0
 11
0.416667
 21
3.347222
 31
0.0
  0
LINE
  5
9A
100
AcDbEntity
  8
NONE
  6
CONTINUOUS
 62
     6
100
AcDbLine
 10
0.444445
 20
3.361111
 30
0.0
 11
0.416667
 21
3.347222
 31
0.0
  0
LINE
  5
9B
100
AcDbEntity
  8
NONE
  6
CONTINUOUS
 62
     6
100
AcDbLine
 10
0.680556
 20
3.375
 30
0.0
 11
0.680556
 21
3.277778
 31
0.0
  0
ENDBLK
  5
9C
100
AcDbEntity
  8
NONE
100
AcDbBlockEnd
  0
BLOCK
  5
9D
100
AcDbEntity
  8
NONE
100
AcDbBlockBegin
  2
*G7
 70
     1
 10
0.0
 20
0.0
 30
0.0
  3

  1

  0
LINE
  5
9E
100
AcDbEntity
  8
NONE
  6
CONTINUOUS
 62
     6
100
AcDbLine
 10
2.222222
 20
1.888889
 30
0.0
 11
2.361111
 21
1.819444
 31
0.0
  0
LINE
  5
9F
100
AcDbEntity
  8
NONE
  6
CONTINUOUS
 62
     6
100
AcDbLine
 10
2.361111
 20
1.819444
 30
0.0
 11
2.166667
 21
1.708333
 31
0.0
  0
LINE
  5
A0
100
AcDbEntity
  8
NONE
  6
CONTINUOUS
 62
     6
100
AcDbLine
 10
2.166667
 20
1.708333
 30
0.0
 11
1.472222
 21
2.027778
 31
0.0
  0
LINE
  5
A1
100
AcDbEntity
  8
NONE
  6
CONTINUOUS
 62
     6
100
AcDbLine
 10
1.472222
 20
2.041667
 30
0.0
 11
1.694444
 21
2.111111
 31
0.0
  0
LINE
  5
A2
100
AcDbEntity
  8
NONE
  6
CONTINUOUS
 62
     6
100
AcDbLine
 10
1.583333
 20
2.041667
 30
0.0
 11
1.708333
 21
2.055556
 31
0.0
  0
LINE
  5
A3
100
AcDbEntity
  8
NONE
  6
CONTINUOUS
 62
     6
100
AcDbLine
 10
1.708333
 20
2.055556
 30
0.0
 11
2.222222
 21
1.847222
 31
0.0
  0
LINE
  5
A4
100
AcDbEntity
  8
NONE
  6
CONTINUOUS
 62
     6
100
AcDbLine
 10
2.222222
 20
1.847222
 30
0.0
 11
2.166667
 21
1.75
 31
0.0
  0
LINE
  5
A5
100
AcDbEntity
  8
NONE
  6
CONTINUOUS
 62
     6
100
AcDbLine
 10
2.166667
 20
1.75
 30
0.0
 11
1.569444
 21
2.027778
 31
0.0
  0
LINE
  5
A6
100
AcDbEntity
  8
NONE
  6
CONTINUOUS
 62
     6
100
AcDbLine
 10
1.722222
 20
2.097222
 30
0.0
 11
1.708333
 21
2.277778
 31
0.0
  0
LINE
  5
A7
100
AcDbEntity
  8
NONE
  6
CONTINUOUS
 62
     6
100
AcDbLine
 10
1.708333
 20
2.277778
 30
0.0
 11
2.305556
 21
2.027778
 31
0.0
  0
LINE
  5
A8
100
AcDbEntity
  8
NONE
  6
CONTINUOUS
 62
     6
100
AcDbLine
 10
2.305556
 20
2.027778
 30
0.0
 11
2.222222
 21
1.875
 31
0.0
  0
LINE
  5
A9
100
AcDbEntity
  8
NONE
  6
CONTINUOUS
 62
     6
100
AcDbLine
 10
1.944444
 20
1.805556
 30
0.0
 11
1.930556
 21
1.638889
 31
0.0
  0
SPLINE
  5
AA
100
AcDbEntity
  8
NONE
  6
CONTINUOUS
 62
     6
100
AcDbSpline
210
0.0
220
0.0
230
1.0
 70
     9
 71
     3
 72
    41
 73
    37
 74
     0
 42
0.000001
 43
0.000001
 40
0.0
 40
0.0
 40
0.0
 40
0.0
 40
1.0
 40
1.0
 40
1.0
 40
2.0
 40
2.0
 40
2.0
 40
3.0
 40
3.0
 40
3.0
 40
4.0
 40
4.0
 40
4.0
 40
5.0
 40
5.0
 40
5.0
 40
6.0
 40
6.0
 40
6.0
 40
7.0
 40
7.0
 40
7.0
 40
8.0
 40
8.0
 40
8.0
 40
9.0
 40
9.0
 40
9.0
 40
10.0
 40
10.0
 40
10.0
 40
11.0
 40
11.0
 40
11.0
 40
12.0
 40
12.0
 40
12.0
 40
12.0
 10
1.9201389
 20
1.6212785000000001
 30
0.0
 10
1.9255104000000001
 20
1.6237595
 30
0.0
 10
1.9312974999999999
 20
1.625
 30
0.0
 10
1.9375
 20
1.625
 30
0.0
 10
1.9437025000000001
 20
1.625
 30
0.0
 10
1.9494895999999999
 20
1.6237595
 30
0.0
 10
1.9548611
 20
1.6212785000000001
 30
0.0
 10
1.9602326000000001
 20
1.6187974999999999
 30
0.0
 10
1.964469
 20
1.6154084
 30
0.0
 10
1.9675703
 20
1.6111111
 30
0.0
 10
1.9706716
 20
1.6068138999999999
 30
0.0
 10
1.9722222
 20
1.6021843
 30
0.0
 10
1.9722222
 20
1.5972222
 30
0.0
 10
1.9722222
 20
1.5922601999999999
 30
0.0
 10
1.9706716
 20
1.5876306
 30
0.0
 10
1.9675703
 20
1.5833333000000001
 30
0.0
 10
1.964469
 20
1.5790360999999999
 30
0.0
 10
1.9602326000000001
 20
1.575647
 30
0.0
 10
1.9548611
 20
1.5731660000000001
 30
0.0
 10
1.9494895999999999
 20
1.5706850000000001
 30
0.0
 10
1.9437025000000001
 20
1.5694444999999999
 30
0.0
 10
1.9375
 20
1.5694444999999999
 30
0.0
 10
1.9312974999999999
 20
1.5694444999999999
 30
0.0
 10
1.9255104000000001
 20
1.5706850000000001
 30
0.0
 10
1.9201389
 20
1.5731660000000001
 30
0.0
 10
1.9147673999999999
 20
1.575647
 30
0.0
 10
1.910531
 20
1.5790360999999999
 30
0.0
 10
1.9074297
 20
1.5833333000000001
 30
0.0
 10
1.9043284
 20
1.5876306
 30
0.0
 10
1.9027778
 20
1.5922601999999999
 30
0.0
 10
1.9027778
 20
1.5972222
 30
0.0
 10
1.9027778
 20
1.6021843
 30
0.0
 10
1.9043284
 20
1.6068138999999999
 30
0.0
 10
1.9074297
 20
1.6111111
 30
0.0
 10
1.910531
 20
1.6154084
 30
0.0
 10
1.9147673999999999
 20
1.6187974999999999
 30
0.0
 10
1.9201389
 20
1.6212785000000001
 30
0.0
  0
LINE
  5
AB
100
AcDbEntity
  8
NONE
  6
CONTINUOUS
 62
     6
100
AcDbLine
 10
1.694444
 20
2.111111
 30
0.0
 11
1.722222
 21
2.097222
 31
0.0
  0
LINE
  5
AC
100
AcDbEntity
  8
NONE
  6
CONTINUOUS
 62
     6
100
AcDbLine
 10
1.722222
 20
2.097222
 30
0.0
 11
2.222222
 21
1.875
 31
0.0
  0
LINE
  5
AD
100
AcDbEntity
  8
NONE
  6
CONTINUOUS
 62
     6
100
AcDbLine
 10
1.75
 20
2.097222
 30
0.0
 11
1.75
 21
2.055556
 31
0.0
  0
LINE
  5
AE
100
AcDbEntity
  8
NONE
  6
CONTINUOUS
 62
     6
100
AcDbLine
 10
2.194444
 20
1.902778
 30
0.0
 11
2.194444
 21
1.875
 31
0.0
  0
LWPOLYLINE
  5
AF
100
AcDbEntity
  8
NONE
  6
CONTINUOUS
 62
     4
100
AcDbPolyline
 90
        5
 70
   129
 10
1.944444
 20
2.125
 10
1.972222
 20
2.125
 10
1.972222
 20
2.055556
 10
1.944444
 20
2.055556
 10
1.944444
 20
2.125
  0
LWPOLYLINE
  5
B0
100
AcDbEntity
  8
NONE
  6
CONTINUOUS
 62
     6
100
AcDbPolyline
 90
        5
 70
   129
 10
1.944444
 20
2.125
 10
1.958333
 20
2.125
 10
1.958333
 20
2.069444
 10
1.944444
 20
2.069444
 10
1.944444
 20
2.125
  0
LINE
  5
B1
100
AcDbEntity
  8
NONE
  6
CONTINUOUS
 62
     6
100
AcDbLine
 10
1.944444
 20
1.847222
 30
0.0
 11
1.958333
 21
2.055556
 31
0.0
  0
ENDBLK
  5
B2
100
AcDbEntity
  8
NONE
100
AcDbBlockEnd
  0
ENDSEC
  0
SECTION
  2
ENTITIES
  0
LWPOLYLINE
  5
B3
100
AcDbEntity
  8
NONE
  6
CONTINUOUS
 62
     6
100
AcDbPolyline
 90
        5
 70
   129
 10
-2.541667
 20
1.347222
 10
-2.430556
 20
1.347222
 10
-2.430556
 20
-0.75
 10
-2.541667
 20
-0.75
 10
-2.541667
 20
1.347222
  0
POLYLINE
  5
B4
100
AcDbEntity
  8
NONE
  6
CONTINUOUS
 62
     6
100
AcDb2dPolyline
 66
     1
 10
0.0
 20
0.0
 30
0.0
 40
0.014
 41
0.014
 75
     5
  0
VERTEX
  5
B5
100
AcDbEntity
  8
NONE
  6
CONTINUOUS
 62
     6
100
AcDbVertex
100
AcDb2dVertex
 10
-2.0
 20
3.680556
 30
0.0
  0
VERTEX
  5
B6
100
AcDbEntity
  8
NONE
  6
CONTINUOUS
 62
     6
100
AcDbVertex
100
AcDb2dVertex
 10
-2.0
 20
1.347222
 30
0.0
  0
VERTEX
  5
B7
100
AcDbEntity
  8
NONE
  6
CONTINUOUS
 62
     6
100
AcDbVertex
100
AcDb2dVertex
 10
-1.861111
 20
1.347222
 30
0.0
  0
VERTEX
  5
B8
100
AcDbEntity
  8
NONE
  6
CONTINUOUS
 62
     6
100
AcDbVertex
100
AcDb2dVertex
 10
-1.861111
 20
0.75
 30
0.0
  0
VERTEX
  5
B9
100
AcDbEntity
  8
NONE
  6
CONTINUOUS
 62
     6
100
AcDbVertex
100
AcDb2dVertex
 10
-1.680556
 20
0.75
 30
0.0
  0
VERTEX
  5
BA
100
AcDbEntity
  8
NONE
  6
CONTINUOUS
 62
     6
100
AcDbVertex
100
AcDb2dVertex
 10
-1.680556
 20
1.458333
 30
0.0
  0
VERTEX
  5
BB
100
AcDbEntity
  8
NONE
  6
CONTINUOUS
 62
     6
100
AcDbVertex
100
AcDb2dVertex
 10
-1.680556
 20
1.458333
 30
0.0
  0
VERTEX
  5
BC
100
AcDbEntity
  8
NONE
  6
CONTINUOUS
 62
     6
100
AcDbVertex
100
AcDb2dVertex
 10
-1.680556
 20
1.583333
 30
0.0
  0
VERTEX
  5
BD
100
AcDbEntity
  8
NONE
  6
CONTINUOUS
 62
     6
100
AcDbVertex
100
AcDb2dVertex
 10
-1.861111
 20
1.583333
 30
0.0
  0
VERTEX
  5
BE
100
AcDbEntity
  8
NONE
  6
CONTINUOUS
 62
     6
100
AcDbVertex
100
AcDb2dVertex
 10
-1.861111
 20
3.833333
 30
0.0
  0
VERTEX
  5
BF
100
AcDbEntity
  8
NONE
  6
CONTINUOUS
 62
     6
100
AcDbVertex
100
AcDb2dVertex
 10
-1.888889
 20
3.805556
 30
0.0
  0
VERTEX
  5
C0
100
AcDbEntity
  8
NONE
  6
CONTINUOUS
 62
     6
100
AcDbVertex
100
AcDb2dVertex
 10
-1.930556
 20
3.972222
 30
0.0
  0
VERTEX
  5
C1
100
AcDbEntity
  8
NONE
  6
CONTINUOUS
 62
     6
100
AcDbVertex
100
AcDb2dVertex
 10
-2.0
 20
3.875
 30
0.0
  0
VERTEX
  5
C2
100
AcDbEntity
  8
NONE
  6
CONTINUOUS
 62
     6
100
AcDbVertex
100
AcDb2dVertex
 10
-2.0
 20
3.875
 30
0.0
  0
VERTEX
  5
C3
100
AcDbEntity
  8
NONE
  6
CONTINUOUS
 62
     6
100
AcDbVertex
100
AcDb2dVertex
 10
-2.0
 20
3.680556
 30
0.0
  0
SEQEND
  5
C4
100
AcDbEntity
  8
NONE
  6
CONTINUOUS
  0
POLYLINE
  5
C5
100
AcDbEntity
  8
NONE
  6
CONTINUOUS
 62
     6
100
AcDb2dPolyline
 66
     1
 10
0.0
 20
0.0
 30
0.0
 40
0.014
 41
0.014
 75
     5
  0
VERTEX
  5
C6
100
AcDbEntity
  8
NONE
  6
CONTINUOUS
 62
     6
100
AcDbVertex
100
AcDb2dVertex
 10
0.388889
 20
-0.763889
 30
0.0
  0
VERTEX
  5
C7
100
AcDbEntity
  8
NONE
  6
CONTINUOUS
 62
     6
100
AcDbVertex
100
AcDb2dVertex
 10
2.888889
 20
-0.763889
 30
0.0
  0
VERTEX
  5
C8
100
AcDbEntity
  8
NONE
  6
CONTINUOUS
 62
     6
100
AcDbVertex
100
AcDb2dVertex
 10
2.888889
 20
-1.777778
 30
0.0
  0
VERTEX
  5
C9
100
AcDbEntity
  8
NONE
  6
CONTINUOUS
 62
     6
100
AcDbVertex
100
AcDb2dVertex
 10
0.847222
 20
-1.777778
 30
0.0
  0
VERTEX
  5
CA
100
AcDbEntity
  8
NONE
  6
CONTINUOUS
 62
     6
100
AcDbVertex
100
AcDb2dVertex
 10
0.847222
 20
-1.916667
 30
0.0
  0
VERTEX
  5
CB
100
AcDbEntity
  8
NONE
  6
CONTINUOUS
 62
     6
100
AcDbVertex
100
AcDb2dVertex
 10
0.388889
 20
-1.916667
 30
0.0
  0
VERTEX
  5
CC
100
AcDbEntity
  8
NONE
  6
CONTINUOUS
 62
     6
100
AcDbVertex
100
AcDb2dVertex
 10
0.388889
 20
-1.916667
 30
0.0
  0
VERTEX
  5
CD
100
AcDbEntity
  8
NONE
  6
CONTINUOUS
 62
     6
100
AcDbVertex
100
AcDb2dVertex
 10
0.388889
 20
-0.763889
 30
0.0
  0
SEQEND
  5
CE
100
AcDbEntity
  8
NONE
  6
CONTINUOUS
  0
LINE
  5
CF
100
AcDbEntity
  8
NONE
  6
CONTINUOUS
 62
     6
100
AcDbLine
 10
0.027778
 20
-1.055556
 30
0.0
 11
0.027778
 21
-0.888889
 31
0.0
  0
POLYLINE
  5
D0
100
AcDbEntity
  8
NONE
  6
CONTINUOUS
 62
     6
100
AcDb2dPolyline
 66
     1
 10
0.0
 20
0.0
 30
0.0
 40
0.014
 41
0.014
 75
     5
  0
VERTEX
  5
D1
100
AcDbEntity
  8
NONE
  6
CONTINUOUS
 62
     6
100
AcDbVertex
100
AcDb2dVertex
 10
0.027778
 20
-1.180556
 30
0.0
  0
VERTEX
  5
D2
100
AcDbEntity
  8
NONE
  6
CONTINUOUS
 62
     6
100
AcDbVertex
100
AcDb2dVertex
 10
0.069445
 20
-1.055556
 30
0.0
  0
VERTEX
  5
D3
100
AcDbEntity
  8
NONE
  6
CONTINUOUS
 62
     6
100
AcDbVertex
100
AcDb2dVertex
 10
0.027778
 20
-1.055556
 30
0.0
  0
VERTEX
  5
D4
100
AcDbEntity
  8
NONE
  6
CONTINUOUS
 62
     6
100
AcDbVertex
100
AcDb2dVertex
 10
-0.013889
 20
-1.055556
 30
0.0
  0
VERTEX
  5
D5
100
AcDbEntity
  8
NONE
  6
CONTINUOUS
 62
     6
100
AcDbVertex
100
AcDb2dVertex
 10
0.027778
 20
-1.180556
 30
0.0
  0
SEQEND
  5
D6
100
AcDbEntity
  8
NONE
  6
CONTINUOUS
  0
POLYLINE
  5
D7
100
AcDbEntity
  8
NONE
  6
CONTINUOUS
 62
     6
100
AcDb2dPolyline
 66
     1
 10
0.0
 20
0.0
 30
0.0
 40
0.014
 41
0.014
 75
     5
  0
VERTEX
  5
D8
100
AcDbEntity
  8
NONE
  6
CONTINUOUS
 62
     6
100
AcDbVertex
100
AcDb2dVertex
 10
0.027778
 20
-0.763889
 30
0.0
  0
VERTEX
  5
D9
100
AcDbEntity
  8
NONE
  6
CONTINUOUS
 62
     6
100
AcDbVertex
100
AcDb2dVertex
 10
0.069445
 20
-0.888889
 30
0.0
  0
VERTEX
  5
DA
100
AcDbEntity
  8
NONE
  6
CONTINUOUS
 62
     6
100
AcDbVertex
100
AcDb2dVertex
 10
0.027778
 20
-0.888889
 30
0.0
  0
VERTEX
  5
DB
100
AcDbEntity
  8
NONE
  6
CONTINUOUS
 62
     6
100
AcDbVertex
100
AcDb2dVertex
 10
-0.013889
 20
-0.888889
 30
0.0
  0
VERTEX
  5
DC
100
AcDbEntity
  8
NONE
  6
CONTINUOUS
 62
     6
100
AcDbVertex
100
AcDb2dVertex
 10
0.027778
 20
-0.763889
 30
0.0
  0
SEQEND
  5
DD
100
AcDbEntity
  8
NONE
  6
CONTINUOUS
  0
TEXT
  5
DE
100
AcDbEntity
  8
NONE
 62
     7
100
AcDbText
 10
0.0
 20
0.0
 30
0.0
 40
0.111111
  1
8" min.
 41
0.6
 72
     1
 11
-0.097222
 21
-2.333333
 31
0.0
100
AcDbText
 73
     3
  0
INSERT
  5
DF
100
AcDbEntity
  8
NONE
100
AcDbBlockReference
  2
*G7
 10
0.0
 20
0.0
 30
0.0
  0
TEXT
  5
E0
100
AcDbEntity
  8
NONE
 62
     7
100
AcDbText
 10
-3.527778
 20
4.694445
 30
0.0
 40
0.266667
  1
Large or Modified Rumford Fireplace
 41
0.6
 11
-3.527778
 21
4.694445
 31
0.0
100
AcDbText
 73
     3
  0
TEXT
  5
E1
100
AcDbEntity
  8
NONE
 62
     7
100
AcDbText
 10
0.0
 20
0.0
 30
0.0
 40
0.2
  1
.....Components by Superior Clay Corp.
 41
0.6
 72
     1
 11
-1.541667
 21
4.305556
 31
0.0
100
AcDbText
 73
     3
  0
TEXT
  5
E2
100
AcDbEntity
  8
NONE
 62
     7
100
AcDbText
 10
0.361111
 20
3.805556
 30
0.0
 40
0.111111
  1
Tall and elegant.....the fireplace that keeps
 41
0.6
100
AcDbText
  0
TEXT
  5
E3
100
AcDbEntity
  8
NONE
 62
     7
100
AcDbText
 10
0.361111
 20
3.666667
 30
0.0
 40
0.111111
  1
you warm.  Rumford fireplaces are shallow
 41
0.6
100
AcDbText
  0
TEXT
  5
E4
100
AcDbEntity
  8
NONE
 62
     7
100
AcDbText
 10
0.361111
 20
3.527778
 30
0.0
 40
0.111111
  1
to reflect more heat and have streamlined
 41
0.6
100
AcDbText
  0
TEXT
  5
E5
100
AcDbEntity
  8
NONE
 62
     7
100
AcDbText
 10
0.361111
 20
3.388889
 30
0.0
 40
0.111111
  1
                    throats to eliminate turbulence
 41
0.6
100
AcDbText
  0
TEXT
  5
E6
100
AcDbEntity
  8
NONE
 62
     7
100
AcDbText
 10
0.361111
 20
3.25
 30
0.0
 40
0.111111
  1
                     and carry away the smoke with
 41
0.6
100
AcDbText
  0
TEXT
  5
E7
100
AcDbEntity
  8
NONE
 62
     7
100
AcDbText
 10
0.361111
 20
3.111111
 30
0.0
 40
0.111111
  1
                      little loss of heated room air.
 41
0.6
100
AcDbText
  0
INSERT
  5
E8
100
AcDbEntity
  8
NONE
100
AcDbBlockReference
  2
*G6
 10
0.0
 20
0.0
 30
0.0
  0
TEXT
  5
E9
100
AcDbEntity
  8
NONE
 62
     7
100
AcDbText
 10
1.388889
 20
2.875
 30
0.0
 40
0.133333
  1
Smoke Chamber
 41
0.6
 11
1.388889
 21
2.875
 31
0.0
100
AcDbText
 73
     3
  0
TEXT
  5
EA
100
AcDbEntity
  8
NONE
 62
     7
100
AcDbText
 10
1.486111
 20
2.708333
 30
0.0
 40
0.111111
  1
offset or centered
 41
0.6
 11
1.486111
 21
2.708333
 31
0.0
100
AcDbText
 73
     3
  0
TEXT
  5
EB
100
AcDbEntity
  8
NONE
 62
     7
100
AcDbText
 10
2.458333
 20
2.236111
 30
0.0
 40
0.133333
  1
Damper
 41
0.6
 11
2.458333
 21
2.236111
 31
0.0
100
AcDbText
 73
     3
  0
TEXT
  5
EC
100
AcDbEntity
  8
NONE
 62
     7
100
AcDbText
 10
1.388889
 20
1.513889
 30
0.0
 40
0.133333
  1
Rumford Segmented Throat
 41
0.6
 11
1.388889
 21
1.513889
 31
0.0
100
AcDbText
 73
     3
  0
POLYLINE
  5
ED
100
AcDbEntity
  8
NONE
  6
CONTINUOUS
 62
     6
100
AcDb2dPolyline
 66
     1
 10
0.0
 20
0.0
 30
0.0
 40
0.014
 41
0.014
 75
     5
  0
VERTEX
  5
EE
100
AcDbEntity
  8
NONE
  6
CONTINUOUS
 62
     6
100
AcDbVertex
100
AcDb2dVertex
 10
0.736111
 20
-1.777778
 30
0.0
  0
VERTEX
  5
EF
100
AcDbEntity
  8
NONE
  6
CONTINUOUS
 62
     6
100
AcDbVertex
100
AcDb2dVertex
 10
0.736111
 20
-1.652778
 30
0.0
  0
VERTEX
  5
F0
100
AcDbEntity
  8
NONE
  6
CONTINUOUS
 62
     6
100
AcDbVertex
100
AcDb2dVertex
 10
1.263889
 20
-1.041667
 30
0.0
  0
VERTEX
  5
F1
100
AcDbEntity
  8
NONE
  6
CONTINUOUS
 62
     6
100
AcDbVertex
100
AcDb2dVertex
 10
1.972222
 20
-1.041667
 30
0.0
  0
VERTEX
  5
F2
100
AcDbEntity
  8
NONE
  6
CONTINUOUS
 62
     6
100
AcDbVertex
100
AcDb2dVertex
 10
2.513889
 20
-1.652778
 30
0.0
  0
VERTEX
  5
F3
100
AcDbEntity
  8
NONE
  6
CONTINUOUS
 62
     6
100
AcDbVertex
100
AcDb2dVertex
 10
2.513889
 20
-1.777778
 30
0.0
  0
VERTEX
  5
F4
100
AcDbEntity
  8
NONE
  6
CONTINUOUS
 62
     6
100
AcDbVertex
100
AcDb2dVertex
 10
0.722222
 20
-1.777778
 30
0.0
  0
VERTEX
  5
F5
100
AcDbEntity
  8
NONE
  6
CONTINUOUS
 62
     6
100
AcDbVertex
100
AcDb2dVertex
 10
0.722222
 20
-1.777778
 30
0.0
  0
VERTEX
  5
F6
100
AcDbEntity
  8
NONE
  6
CONTINUOUS
 62
     6
100
AcDbVertex
100
AcDb2dVertex
 10
0.736111
 20
-1.777778
 30
0.0
  0
SEQEND
  5
F7
100
AcDbEntity
  8
NONE
  6
CONTINUOUS
  0
LINE
  5
F8
100
AcDbEntity
  8
NONE
  6
CONTINUOUS
 62
     6
100
AcDbLine
 10
2.888889
 20
-1.777778
 30
0.0
 11
2.888889
 21
-1.972222
 31
0.0
  0
LINE
  5
F9
100
AcDbEntity
  8
NONE
  6
CONTINUOUS
 62
     6
100
AcDbLine
 10
2.888889
 20
-2.527778
 30
0.0
 11
0.388889
 21
-2.527778
 31
0.0
  0
LINE
  5
FA
100
AcDbEntity
  8
NONE
  6
CONTINUOUS
 62
     6
100
AcDbLine
 10
0.388889
 20
-2.527778
 30
0.0
 11
0.388889
 21
-1.777778
 31
0.0
  0
LINE
  5
FB
100
AcDbEntity
  8
NONE
  6
CONTINUOUS
 62
     6
100
AcDbLine
 10
0.513889
 20
-2.166667
 30
0.0
 11
0.708333
 21
-2.166667
 31
0.0
  0
POLYLINE
  5
FC
100
AcDbEntity
  8
NONE
  6
CONTINUOUS
 62
     6
100
AcDb2dPolyline
 66
     1
 10
0.0
 20
0.0
 30
0.0
 40
0.014
 41
0.014
 75
     5
  0
VERTEX
  5
FD
100
AcDbEntity
  8
NONE
  6
CONTINUOUS
 62
     6
100
AcDbVertex
100
AcDb2dVertex
 10
0.388889
 20
-2.166667
 30
0.0
  0
VERTEX
  5
FE
100
AcDbEntity
  8
NONE
  6
CONTINUOUS
 62
     6
100
AcDbVertex
100
AcDb2dVertex
 10
0.513889
 20
-2.208333
 30
0.0
  0
VERTEX
  5
FF
100
AcDbEntity
  8
NONE
  6
CONTINUOUS
 62
     6
100
AcDbVertex
100
AcDb2dVertex
 10
0.513889
 20
-2.166667
 30
0.0
  0
VERTEX
  5
100
100
AcDbEntity
  8
NONE
  6
CONTINUOUS
 62
     6
100
AcDbVertex
100
AcDb2dVertex
 10
0.513889
 20
-2.125
 30
0.0
  0
VERTEX
  5
101
100
AcDbEntity
  8
NONE
  6
CONTINUOUS
 62
     6
100
AcDbVertex
100
AcDb2dVertex
 10
0.388889
 20
-2.166667
 30
0.0
  0
SEQEND
  5
102
100
AcDbEntity
  8
NONE
  6
CONTINUOUS
  0
POLYLINE
  5
103
100
AcDbEntity
  8
NONE
  6
CONTINUOUS
 62
     6
100
AcDb2dPolyline
 66
     1
 10
0.0
 20
0.0
 30
0.0
 40
0.014
 41
0.014
 75
     5
  0
VERTEX
  5
104
100
AcDbEntity
  8
NONE
  6
CONTINUOUS
 62
     6
100
AcDbVertex
100
AcDb2dVertex
 10
0.833333
 20
-2.166667
 30
0.0
  0
VERTEX
  5
105
100
AcDbEntity
  8
NONE
  6
CONTINUOUS
 62
     6
100
AcDbVertex
100
AcDb2dVertex
 10
0.708333
 20
-2.208333
 30
0.0
  0
VERTEX
  5
106
100
AcDbEntity
  8
NONE
  6
CONTINUOUS
 62
     6
100
AcDbVertex
100
AcDb2dVertex
 10
0.708333
 20
-2.166667
 30
0.0
  0
VERTEX
  5
107
100
AcDbEntity
  8
NONE
  6
CONTINUOUS
 62
     6
100
AcDbVertex
100
AcDb2dVertex
 10
0.708333
 20
-2.125
 30
0.0
  0
VERTEX
  5
108
100
AcDbEntity
  8
NONE
  6
CONTINUOUS
 62
     6
100
AcDbVertex
100
AcDb2dVertex
 10
0.833333
 20
-2.166667
 30
0.0
  0
SEQEND
  5
109
100
AcDbEntity
  8
NONE
  6
CONTINUOUS
  0
LINE
  5
10A
100
AcDbEntity
  8
NONE
  6
CONTINUOUS
 62
     6
100
AcDbLine
 10
0.958333
 20
-2.166667
 30
0.0
 11
2.277778
 21
-2.166667
 31
0.0
  0
POLYLINE
  5
10B
100
AcDbEntity
  8
NONE
  6
CONTINUOUS
 62
     6
100
AcDb2dPolyline
 66
     1
 10
0.0
 20
0.0
 30
0.0
 40
0.014
 41
0.014
 75
     5
  0
VERTEX
  5
10C
100
AcDbEntity
  8
NONE
  6
CONTINUOUS
 62
     6
100
AcDbVertex
100
AcDb2dVertex
 10
0.833333
 20
-2.166667
 30
0.0
  0
VERTEX
  5
10D
100
AcDbEntity
  8
NONE
  6
CONTINUOUS
 62
     6
100
AcDbVertex
100
AcDb2dVertex
 10
0.958333
 20
-2.208333
 30
0.0
  0
VERTEX
  5
10E
100
AcDbEntity
  8
NONE
  6
CONTINUOUS
 62
     6
100
AcDbVertex
100
AcDb2dVertex
 10
0.958333
 20
-2.166667
 30
0.0
  0
VERTEX
  5
10F
100
AcDbEntity
  8
NONE
  6
CONTINUOUS
 62
     6
100
AcDbVertex
100
AcDb2dVertex
 10
0.958333
 20
-2.125
 30
0.0
  0
VERTEX
  5
110
100
AcDbEntity
  8
NONE
  6
CONTINUOUS
 62
     6
100
AcDbVertex
100
AcDb2dVertex
 10
0.833333
 20
-2.166667
 30
0.0
  0
SEQEND
  5
111
100
AcDbEntity
  8
NONE
  6
CONTINUOUS
  0
POLYLINE
  5
112
100
AcDbEntity
  8
NONE
  6
CONTINUOUS
 62
     6
100
AcDb2dPolyline
 66
     1
 10
0.0
 20
0.0
 30
0.0
 40
0.014
 41
0.014
 75
     5
  0
VERTEX
  5
113
100
AcDbEntity
  8
NONE
  6
CONTINUOUS
 62
     6
100
AcDbVertex
100
AcDb2dVertex
 10
2.402778
 20
-2.166667
 30
0.0
  0
VERTEX
  5
114
100
AcDbEntity
  8
NONE
  6
CONTINUOUS
 62
     6
100
AcDbVertex
100
AcDb2dVertex
 10
2.277778
 20
-2.208333
 30
0.0
  0
VERTEX
  5
115
100
AcDbEntity
  8
NONE
  6
CONTINUOUS
 62
     6
100
AcDbVertex
100
AcDb2dVertex
 10
2.277778
 20
-2.166667
 30
0.0
  0
VERTEX
  5
116
100
AcDbEntity
  8
NONE
  6
CONTINUOUS
 62
     6
100
AcDbVertex
100
AcDb2dVertex
 10
2.277778
 20
-2.125
 30
0.0
  0
VERTEX
  5
117
100
AcDbEntity
  8
NONE
  6
CONTINUOUS
 62
     6
100
AcDbVertex
100
AcDb2dVertex
 10
2.402778
 20
-2.166667
 30
0.0
  0
SEQEND
  5
118
100
AcDbEntity
  8
NONE
  6
CONTINUOUS
  0
LINE
  5
119
100
AcDbEntity
  8
NONE
  6
CONTINUOUS
 62
     6
100
AcDbLine
 10
0.027778
 20
-1.652778
 30
0.0
 11
0.027778
 21
-1.361111
 31
0.0
  0
POLYLINE
  5
11A
100
AcDbEntity
  8
NONE
  6
CONTINUOUS
 62
     6
100
AcDb2dPolyline
 66
     1
 10
0.0
 20
0.0
 30
0.0
 40
0.014
 41
0.014
 75
     5
  0
VERTEX
  5
11B
100
AcDbEntity
  8
NONE
  6
CONTINUOUS
 62
     6
100
AcDbVertex
100
AcDb2dVertex
 10
0.027778
 20
-1.777778
 30
0.0
  0
VERTEX
  5
11C
100
AcDbEntity
  8
NONE
  6
CONTINUOUS
 62
     6
100
AcDbVertex
100
AcDb2dVertex
 10
0.069445
 20
-1.652778
 30
0.0
  0
VERTEX
  5
11D
100
AcDbEntity
  8
NONE
  6
CONTINUOUS
 62
     6
100
AcDbVertex
100
AcDb2dVertex
 10
0.027778
 20
-1.652778
 30
0.0
  0
VERTEX
  5
11E
100
AcDbEntity
  8
NONE
  6
CONTINUOUS
 62
     6
100
AcDbVertex
100
AcDb2dVertex
 10
-0.013889
 20
-1.652778
 30
0.0
  0
VERTEX
  5
11F
100
AcDbEntity
  8
NONE
  6
CONTINUOUS
 62
     6
100
AcDbVertex
100
AcDb2dVertex
 10
0.027778
 20
-1.777778
 30
0.0
  0
SEQEND
  5
120
100
AcDbEntity
  8
NONE
  6
CONTINUOUS
  0
POLYLINE
  5
121
100
AcDbEntity
  8
NONE
  6
CONTINUOUS
 62
     6
100
AcDb2dPolyline
 66
     1
 10
0.0
 20
0.0
 30
0.0
 40
0.014
 41
0.014
 75
     5
  0
VERTEX
  5
122
100
AcDbEntity
  8
NONE
  6
CONTINUOUS
 62
     6
100
AcDbVertex
100
AcDb2dVertex
 10
0.027778
 20
-1.236111
 30
0.0
  0
VERTEX
  5
123
100
AcDbEntity
  8
NONE
  6
CONTINUOUS
 62
     6
100
AcDbVertex
100
AcDb2dVertex
 10
0.069445
 20
-1.361111
 30
0.0
  0
VERTEX
  5
124
100
AcDbEntity
  8
NONE
  6
CONTINUOUS
 62
     6
100
AcDbVertex
100
AcDb2dVertex
 10
0.027778
 20
-1.361111
 30
0.0
  0
VERTEX
  5
125
100
AcDbEntity
  8
NONE
  6
CONTINUOUS
 62
     6
100
AcDbVertex
100
AcDb2dVertex
 10
-0.013889
 20
-1.361111
 30
0.0
  0
VERTEX
  5
126
100
AcDbEntity
  8
NONE
  6
CONTINUOUS
 62
     6
100
AcDbVertex
100
AcDb2dVertex
 10
0.027778
 20
-1.236111
 30
0.0
  0
SEQEND
  5
127
100
AcDbEntity
  8
NONE
  6
CONTINUOUS
  0
LINE
  5
128
100
AcDbEntity
  8
NONE
  6
CONTINUOUS
 62
     6
100
AcDbLine
 10
0.277778
 20
-0.763889
 30
0.0
 11
-0.125
 21
-0.763889
 31
0.0
  0
LINE
  5
129
100
AcDbEntity
  8
NONE
  6
CONTINUOUS
 62
     6
100
AcDbLine
 10
0.277778
 20
-1.791667
 30
0.0
 11
-0.125
 21
-1.791667
 31
0.0
  0
LINE
  5
12A
100
AcDbEntity
  8
NONE
  6
CONTINUOUS
 62
     6
100
AcDbLine
 10
0.291667
 20
-1.222222
 30
0.0
 11
-0.111111
 21
-1.222222
 31
0.0
  0
LINE
  5
12B
100
AcDbEntity
  8
NONE
  6
CONTINUOUS
 62
     6
100
AcDbLine
 10
0.847222
 20
-1.972222
 30
0.0
 11
0.847222
 21
-2.319444
 31
0.0
  0
LINE
  5
12C
100
AcDbEntity
  8
NONE
  6
CONTINUOUS
 62
     6
100
AcDbLine
 10
2.402778
 20
-1.861111
 30
0.0
 11
2.402778
 21
-2.319444
 31
0.0
  0
TEXT
  5
12D
100
AcDbEntity
  8
NONE
 62
     7
100
AcDbText
 10
0.0
 20
0.0
 30
0.0
 40
0.133333
  1
A
 41
0.6
 72
     1
 11
1.583333
 21
-2.083333
 31
0.0
100
AcDbText
 73
     3
  0
TEXT
  5
12E
100
AcDbEntity
  8
NONE
 62
     7
100
AcDbText
 10
0.0
 20
0.0
 30
0.0
 40
0.133333
  1
B
 41
0.6
 72
     1
 11
-0.013889
 21
-1.416667
 31
0.0
100
AcDbText
 73
     3
  0
LINE
  5
12F
100
AcDbEntity
  8
NONE
  6
CONTINUOUS
 62
     6
100
AcDbLine
 10
2.402778
 20
-1.819444
 30
0.0
 11
2.888889
 21
-1.819444
 31
0.0
  0
LINE
  5
130
100
AcDbEntity
  8
NONE
  6
CONTINUOUS
 62
     6
100
AcDbLine
 10
2.402778
 20
-1.777778
 30
0.0
 11
2.402778
 21
-1.819444
 31
0.0
  0
LINE
  5
131
100
AcDbEntity
  8
NONE
  6
CONTINUOUS
 62
     6
100
AcDbLine
 10
2.680556
 20
-1.777778
 30
0.0
 11
2.680556
 21
-1.819444
 31
0.0
  0
LINE
  5
132
100
AcDbEntity
  8
NONE
  6
CONTINUOUS
 62
     6
100
AcDbLine
 10
2.611111
 20
-1.819444
 30
0.0
 11
2.611111
 21
-1.861111
 31
0.0
  0
LINE
  5
133
100
AcDbEntity
  8
NONE
  6
CONTINUOUS
 62
     6
100
AcDbLine
 10
2.611111
 20
-1.861111
 30
0.0
 11
2.652778
 21
-1.861111
 31
0.0
  0
LINE
  5
134
100
AcDbEntity
  8
NONE
  6
CONTINUOUS
 62
     6
100
AcDbLine
 10
2.652778
 20
-1.861111
 30
0.0
 11
2.652778
 21
-1.875
 31
0.0
  0
LINE
  5
135
100
AcDbEntity
  8
NONE
  6
CONTINUOUS
 62
     6
100
AcDbLine
 10
2.652778
 20
-1.875
 30
0.0
 11
2.888889
 21
-1.875
 31
0.0
  0
LINE
  5
136
100
AcDbEntity
  8
NONE
  6
CONTINUOUS
 62
     6
100
AcDbLine
 10
2.597222
 20
-2.027778
 30
0.0
 11
2.486111
 21
-1.833333
 31
0.0
  0
LINE
  5
137
100
AcDbEntity
  8
NONE
  6
CONTINUOUS
 62
     6
100
AcDbLine
 10
0.597222
 20
-2.291667
 30
0.0
 11
0.305556
 21
-2.416667
 31
0.0
  0
INSERT
  5
138
100
AcDbEntity
  8
NONE
100
AcDbBlockReference
  2
*G5
 10
0.0
 20
0.0
 30
0.0
  0
INSERT
  5
139
100
AcDbEntity
  8
NONE
100
AcDbBlockReference
  2
*G4
 10
0.0
 20
0.0
 30
0.0
  0
LWPOLYLINE
  5
13A
100
AcDbEntity
  8
NONE
  6
CONTINUOUS
 62
     6
100
AcDbPolyline
 90
        5
 70
   129
 10
1.333333
 20
-1.069444
 10
1.916667
 20
-1.069444
 10
1.916667
 20
-1.208333
 10
1.333333
 20
-1.208333
 10
1.333333
 20
-1.069444
  0
POLYLINE
  5
13B
100
AcDbEntity
  8
NONE
  6
CONTINUOUS
 62
     6
100
AcDb2dPolyline
 66
     1
 10
0.0
 20
0.0
 30
0.0
 40
0.014
 41
0.014
 75
     5
  0
VERTEX
  5
13C
100
AcDbEntity
  8
NONE
  6
CONTINUOUS
 62
     6
100
AcDbVertex
100
AcDb2dVertex
 10
0.541667
 20
-0.902778
 30
0.0
  0
VERTEX
  5
13D
100
AcDbEntity
  8
NONE
  6
CONTINUOUS
 62
     6
100
AcDbVertex
100
AcDb2dVertex
 10
0.541667
 20
-1.611111
 30
0.0
  0
VERTEX
  5
13E
100
AcDbEntity
  8
NONE
  6
CONTINUOUS
 62
     6
100
AcDbVertex
100
AcDb2dVertex
 10
0.597222
 20
-1.611111
 30
0.0
  0
VERTEX
  5
13F
100
AcDbEntity
  8
NONE
  6
CONTINUOUS
 62
     6
100
AcDbVertex
100
AcDb2dVertex
 10
0.930556
 20
-1.236111
 30
0.0
  0
VERTEX
  5
140
100
AcDbEntity
  8
NONE
  6
CONTINUOUS
 62
     6
100
AcDbVertex
100
AcDb2dVertex
 10
1.069444
 20
-1.069444
 30
0.0
  0
VERTEX
  5
141
100
AcDbEntity
  8
NONE
  6
CONTINUOUS
 62
     6
100
AcDbVertex
100
AcDb2dVertex
 10
1.222222
 20
-0.902778
 30
0.0
  0
VERTEX
  5
142
100
AcDbEntity
  8
NONE
  6
CONTINUOUS
 62
     6
100
AcDbVertex
100
AcDb2dVertex
 10
1.222222
 20
-0.902778
 30
0.0
  0
VERTEX
  5
143
100
AcDbEntity
  8
NONE
  6
CONTINUOUS
 62
     6
100
AcDbVertex
100
AcDb2dVertex
 10
0.541667
 20
-0.902778
 30
0.0
  0
SEQEND
  5
144
100
AcDbEntity
  8
NONE
  6
CONTINUOUS
  0
POLYLINE
  5
145
100
AcDbEntity
  8
NONE
  6
CONTINUOUS
 62
     6
100
AcDb2dPolyline
 66
     1
 10
0.0
 20
0.0
 30
0.0
 40
0.014
 41
0.014
 75
     5
  0
VERTEX
  5
146
100
AcDbEntity
  8
NONE
  6
CONTINUOUS
 62
     6
100
AcDbVertex
100
AcDb2dVertex
 10
2.763889
 20
-0.902778
 30
0.0
  0
VERTEX
  5
147
100
AcDbEntity
  8
NONE
  6
CONTINUOUS
 62
     6
100
AcDbVertex
100
AcDb2dVertex
 10
2.763889
 20
-1.638889
 30
0.0
  0
VERTEX
  5
148
100
AcDbEntity
  8
NONE
  6
CONTINUOUS
 62
     6
100
AcDbVertex
100
AcDb2dVertex
 10
2.680556
 20
-1.638889
 30
0.0
  0
VERTEX
  5
149
100
AcDbEntity
  8
NONE
  6
CONTINUOUS
 62
     6
100
AcDbVertex
100
AcDb2dVertex
 10
2.388889
 20
-1.319444
 30
0.0
  0
VERTEX
  5
14A
100
AcDbEntity
  8
NONE
  6
CONTINUOUS
 62
     6
100
AcDbVertex
100
AcDb2dVertex
 10
2.388889
 20
-1.041667
 30
0.0
  0
VERTEX
  5
14B
100
AcDbEntity
  8
NONE
  6
CONTINUOUS
 62
     6
100
AcDbVertex
100
AcDb2dVertex
 10
2.388889
 20
-0.902778
 30
0.0
  0
VERTEX
  5
14C
100
AcDbEntity
  8
NONE
  6
CONTINUOUS
 62
     6
100
AcDbVertex
100
AcDb2dVertex
 10
2.388889
 20
-0.902778
 30
0.0
  0
VERTEX
  5
14D
100
AcDbEntity
  8
NONE
  6
CONTINUOUS
 62
     6
100
AcDbVertex
100
AcDb2dVertex
 10
2.763889
 20
-0.902778
 30
0.0
  0
SEQEND
  5
14E
100
AcDbEntity
  8
NONE
  6
CONTINUOUS
  0
LINE
  5
14F
100
AcDbEntity
  8
NONE
  6
CONTINUOUS
 62
     6
100
AcDbLine
 10
1.694444
 20
-1.083333
 30
0.0
 11
1.694444
 21
-1.180556
 31
0.0
  0
POLYLINE
  5
150
100
AcDbEntity
  8
NONE
  6
CONTINUOUS
 62
     6
100
AcDb2dPolyline
 66
     1
 10
0.0
 20
0.0
 30
0.0
 40
0.014
 41
0.014
 75
     5
  0
VERTEX
  5
151
100
AcDbEntity
  8
NONE
  6
CONTINUOUS
 62
     6
100
AcDbVertex
100
AcDb2dVertex
 10
0.847222
 20
-1.763889
 30
0.0
  0
VERTEX
  5
152
100
AcDbEntity
  8
NONE
  6
CONTINUOUS
 62
     6
100
AcDbVertex
100
AcDb2dVertex
 10
1.319444
 20
-1.194444
 30
0.0
  0
VERTEX
  5
153
100
AcDbEntity
  8
NONE
  6
CONTINUOUS
 62
     6
100
AcDbVertex
100
AcDb2dVertex
 10
1.902778
 20
-1.194444
 30
0.0
  0
VERTEX
  5
154
100
AcDbEntity
  8
NONE
  6
CONTINUOUS
 62
     6
100
AcDbVertex
100
AcDb2dVertex
 10
2.416667
 20
-1.777778
 30
0.0
  0
VERTEX
  5
155
100
AcDbEntity
  8
NONE
  6
CONTINUOUS
 62
     6
100
AcDbVertex
100
AcDb2dVertex
 10
0.847222
 20
-1.777778
 30
0.0
  0
VERTEX
  5
156
100
AcDbEntity
  8
NONE
  6
CONTINUOUS
 62
     6
100
AcDbVertex
100
AcDb2dVertex
 10
0.847222
 20
-1.777778
 30
0.0
  0
VERTEX
  5
157
100
AcDbEntity
  8
NONE
  6
CONTINUOUS
 62
     6
100
AcDbVertex
100
AcDb2dVertex
 10
0.847222
 20
-1.763889
 30
0.0
  0
SEQEND
  5
158
100
AcDbEntity
  8
NONE
  6
CONTINUOUS
  0
TEXT
  5
159
100
AcDbEntity
  8
NONE
 62
     7
100
AcDbText
 10
0.0
 20
0.0
 30
0.0
 40
0.133333
  1
C
 41
0.6
 72
     1
 11
1.569444
 21
-1.208333
 31
0.0
100
AcDbText
 73
     3
  0
TEXT
  5
15A
100
AcDbEntity
  8
NONE
 62
     7
100
AcDbText
 10
0.0
 20
0.0
 30
0.0
 40
0.133333
  1
D
 41
0.6
 72
     1
 11
1.125
 21
-1.458333
 31
0.0
100
AcDbText
 73
     3
  0
TEXT
  5
15B
100
AcDbEntity
  8
NONE
 62
     7
100
AcDbText
 10
0.0
 20
0.0
 30
0.0
 40
0.133333
  1
D
 41
0.6
 72
     1
 11
2.027778
 21
-1.458333
 31
0.0
100
AcDbText
 73
     3
  0
LINE
  5
15C
100
AcDbEntity
  8
NONE
  6
CONTINUOUS
 62
     6
100
AcDbLine
 10
0.902778
 20
-0.902778
 30
0.0
 11
2.416667
 21
-0.902778
 31
0.0
  0
TEXT
  5
15D
100
AcDbEntity
  8
NONE
 62
     7
100
AcDbText
 10
2.5
 20
-2.138889
 30
0.0
 40
0.111111
  1
Surround 
 41
0.6
100
AcDbText
  0
TEXT
  5
15E
100
AcDbEntity
  8
NONE
 62
     7
100
AcDbText
 10
2.5
 20
-2.277778
 30
0.0
 40
0.111111
  1
6" min. to
 41
0.6
100
AcDbText
  0
TEXT
  5
15F
100
AcDbEntity
  8
NONE
 62
     7
100
AcDbText
 10
2.5
 20
-2.416667
 30
0.0
 40
0.111111
  1
comb. mantel.
 41
0.6
100
AcDbText
  0
LINE
  5
160
100
AcDbEntity
  8
NONE
  6
CONTINUOUS
 62
     6
100
AcDbLine
 10
0.611111
 20
-2.291667
 30
0.0
 11
0.666667
 21
-2.166667
 31
0.0
  0
LWPOLYLINE
  5
161
100
AcDbEntity
  8
NONE
  6
CONTINUOUS
 62
     6
100
AcDbPolyline
 90
        5
 70
   129
 10
-2.708333
 20
1.347222
 10
-2.569444
 20
1.347222
 10
-2.569444
 20
-0.847222
 10
-2.708333
 20
-0.847222
 10
-2.708333
 20
1.347222
  0
LINE
  5
162
100
AcDbEntity
  8
NONE
  6
CONTINUOUS
 62
     6
100
AcDbLine
 10
-2.291667
 20
0.75
 30
0.0
 11
-2.291667
 21
0.569445
 31
0.0
  0
LINE
  5
163
100
AcDbEntity
  8
NONE
  6
CONTINUOUS
 62
     6
100
AcDbLine
 10
-1.861111
 20
0.388889
 30
0.0
 11
-2.541667
 21
0.388889
 31
0.0
  0
LINE
  5
164
100
AcDbEntity
  8
NONE
  6
CONTINUOUS
 62
     6
100
AcDbLine
 10
-1.861111
 20
0.208333
 30
0.0
 11
-2.541667
 21
0.208333
 31
0.0
  0
LINE
  5
165
100
AcDbEntity
  8
NONE
  6
CONTINUOUS
 62
     6
100
AcDbLine
 10
-1.861111
 20
0.013889
 30
0.0
 11
-2.541667
 21
0.013889
 31
0.0
  0
LINE
  5
166
100
AcDbEntity
  8
NONE
  6
CONTINUOUS
 62
     6
100
AcDbLine
 10
-1.861111
 20
-0.166667
 30
0.0
 11
-2.541667
 21
-0.166667
 31
0.0
  0
LINE
  5
167
100
AcDbEntity
  8
NONE
  6
CONTINUOUS
 62
     6
100
AcDbLine
 10
-1.861111
 20
-0.361111
 30
0.0
 11
-2.541667
 21
-0.361111
 31
0.0
  0
LINE
  5
168
100
AcDbEntity
  8
NONE
  6
CONTINUOUS
 62
     6
100
AcDbLine
 10
-1.861111
 20
-0.541667
 30
0.0
 11
-2.541667
 21
-0.541667
 31
0.0
  0
LINE
  5
169
100
AcDbEntity
  8
NONE
  6
CONTINUOUS
 62
     6
100
AcDbLine
 10
-1.861111
 20
0.763889
 30
0.0
 11
-1.861111
 21
-0.736111
 31
0.0
  0
LINE
  5
16A
100
AcDbEntity
  8
NONE
  6
CONTINUOUS
 62
     6
100
AcDbLine
 10
-2.0
 20
0.763889
 30
0.0
 11
-2.0
 21
0.569445
 31
0.0
  0
LINE
  5
16B
100
AcDbEntity
  8
NONE
  6
CONTINUOUS
 62
     6
100
AcDbLine
 10
-2.291667
 20
0.388889
 30
0.0
 11
-2.291667
 21
0.208333
 31
0.0
  0
LINE
  5
16C
100
AcDbEntity
  8
NONE
  6
CONTINUOUS
 62
     6
100
AcDbLine
 10
-2.0
 20
0.388889
 30
0.0
 11
-2.0
 21
0.208333
 31
0.0
  0
LINE
  5
16D
100
AcDbEntity
  8
NONE
  6
CONTINUOUS
 62
     6
100
AcDbLine
 10
-2.152778
 20
0.208333
 30
0.0
 11
-2.152778
 21
0.013889
 31
0.0
  0
LINE
  5
16E
100
AcDbEntity
  8
NONE
  6
CONTINUOUS
 62
     6
100
AcDbLine
 10
-2.291667
 20
0.013889
 30
0.0
 11
-2.291667
 21
-0.166667
 31
0.0
  0
LINE
  5
16F
100
AcDbEntity
  8
NONE
  6
CONTINUOUS
 62
     6
100
AcDbLine
 10
-2.0
 20
0.013889
 30
0.0
 11
-2.0
 21
-0.166667
 31
0.0
  0
LINE
  5
170
100
AcDbEntity
  8
NONE
  6
CONTINUOUS
 62
     6
100
AcDbLine
 10
-2.152778
 20
-0.166667
 30
0.0
 11
-2.152778
 21
-0.361111
 31
0.0
  0
LINE
  5
171
100
AcDbEntity
  8
NONE
  6
CONTINUOUS
 62
     6
100
AcDbLine
 10
-2.291667
 20
-0.361111
 30
0.0
 11
-2.291667
 21
-0.541667
 31
0.0
  0
LINE
  5
172
100
AcDbEntity
  8
NONE
  6
CONTINUOUS
 62
     6
100
AcDbLine
 10
-2.0
 20
-0.361111
 30
0.0
 11
-2.0
 21
-0.541667
 31
0.0
  0
LINE
  5
173
100
AcDbEntity
  8
NONE
  6
CONTINUOUS
 62
     6
100
AcDbLine
 10
-2.152778
 20
-0.541667
 30
0.0
 11
-2.152778
 21
-0.736111
 31
0.0
  0
LINE
  5
174
100
AcDbEntity
  8
NONE
  6
CONTINUOUS
 62
     6
100
AcDbLine
 10
-2.708333
 20
1.347222
 30
0.0
 11
-2.0
 21
1.347222
 31
0.0
  0
LINE
  5
175
100
AcDbEntity
  8
NONE
  6
CONTINUOUS
 62
     6
100
AcDbLine
 10
-2.861111
 20
-2.027778
 30
0.0
 11
-2.861111
 21
3.722222
 31
0.0
  0
LINE
  5
176
100
AcDbEntity
  8
NONE
  6
CONTINUOUS
 62
     6
100
AcDbLine
 10
-2.708333
 20
3.847222
 30
0.0
 11
-2.708333
 21
-0.944444
 31
0.0
  0
LINE
  5
177
100
AcDbEntity
  8
NONE
  6
CONTINUOUS
 62
     6
100
AcDbLine
 10
-2.0
 20
1.347222
 30
0.0
 11
-2.0
 21
3.833333
 31
0.0
  0
LINE
  5
178
100
AcDbEntity
  8
NONE
  6
CONTINUOUS
 62
     6
100
AcDbLine
 10
-2.625
 20
2.597222
 30
0.0
 11
-2.083333
 21
2.597222
 31
0.0
  0
LINE
  5
179
100
AcDbEntity
  8
NONE
  6
CONTINUOUS
 62
     6
100
AcDbLine
 10
-2.625
 20
1.347222
 30
0.0
 11
-2.625
 21
2.597222
 31
0.0
  0
LINE
  5
17A
100
AcDbEntity
  8
NONE
  6
CONTINUOUS
 62
     6
100
AcDbLine
 10
-2.583333
 20
1.347222
 30
0.0
 11
-2.583333
 21
2.597222
 31
0.0
  0
LINE
  5
17B
100
AcDbEntity
  8
NONE
  6
CONTINUOUS
 62
     6
100
AcDbLine
 10
-2.125
 20
1.347222
 30
0.0
 11
-2.125
 21
2.597222
 31
0.0
  0
LINE
  5
17C
100
AcDbEntity
  8
NONE
  6
CONTINUOUS
 62
     6
100
AcDbLine
 10
-2.083333
 20
1.347222
 30
0.0
 11
-2.083333
 21
2.597222
 31
0.0
  0
LINE
  5
17D
100
AcDbEntity
  8
NONE
  6
CONTINUOUS
 62
     6
100
AcDbLine
 10
-2.625
 20
2.625
 30
0.0
 11
-2.083333
 21
2.625
 31
0.0
  0
LINE
  5
17E
100
AcDbEntity
  8
NONE
  6
CONTINUOUS
 62
     6
100
AcDbLine
 10
-2.625
 20
2.625
 30
0.0
 11
-2.625
 21
3.625
 31
0.0
  0
LINE
  5
17F
100
AcDbEntity
  8
NONE
  6
CONTINUOUS
 62
     6
100
AcDbLine
 10
-2.583333
 20
2.625
 30
0.0
 11
-2.583333
 21
3.625
 31
0.0
  0
LINE
  5
180
100
AcDbEntity
  8
NONE
  6
CONTINUOUS
 62
     6
100
AcDbLine
 10
-2.125
 20
2.625
 30
0.0
 11
-2.125
 21
3.625
 31
0.0
  0
LINE
  5
181
100
AcDbEntity
  8
NONE
  6
CONTINUOUS
 62
     6
100
AcDbLine
 10
-2.083333
 20
2.625
 30
0.0
 11
-2.083333
 21
3.625
 31
0.0
  0
LINE
  5
182
100
AcDbEntity
  8
NONE
  6
CONTINUOUS
 62
     6
100
AcDbLine
 10
-2.625
 20
3.625
 30
0.0
 11
-2.083333
 21
3.625
 31
0.0
  0
LINE
  5
183
100
AcDbEntity
  8
NONE
  6
CONTINUOUS
 62
     6
100
AcDbLine
 10
-2.625
 20
3.652778
 30
0.0
 11
-2.083333
 21
3.652778
 31
0.0
  0
LINE
  5
184
100
AcDbEntity
  8
NONE
  6
CONTINUOUS
 62
     6
100
AcDbLine
 10
-2.625
 20
3.652778
 30
0.0
 11
-2.625
 21
3.805556
 31
0.0
  0
LINE
  5
185
100
AcDbEntity
  8
NONE
  6
CONTINUOUS
 62
     6
100
AcDbLine
 10
-2.583333
 20
3.652778
 30
0.0
 11
-2.583333
 21
3.791667
 31
0.0
  0
LINE
  5
186
100
AcDbEntity
  8
NONE
  6
CONTINUOUS
 62
     6
100
AcDbLine
 10
-2.083333
 20
3.652778
 30
0.0
 11
-2.083333
 21
3.847222
 31
0.0
  0
LINE
  5
187
100
AcDbEntity
  8
NONE
  6
CONTINUOUS
 62
     6
100
AcDbLine
 10
-2.125
 20
3.652778
 30
0.0
 11
-2.125
 21
3.847222
 31
0.0
  0
LINE
  5
188
100
AcDbEntity
  8
NONE
  6
CONTINUOUS
 62
     6
100
AcDbLine
 10
-2.625
 20
1.388889
 30
0.0
 11
-2.583333
 21
1.347222
 31
0.0
  0
LINE
  5
189
100
AcDbEntity
  8
NONE
  6
CONTINUOUS
 62
     6
100
AcDbLine
 10
-2.625
 20
1.430556
 30
0.0
 11
-2.583333
 21
1.388889
 31
0.0
  0
LINE
  5
18A
100
AcDbEntity
  8
NONE
  6
CONTINUOUS
 62
     6
100
AcDbLine
 10
-2.625
 20
1.472222
 30
0.0
 11
-2.583333
 21
1.430556
 31
0.0
  0
LINE
  5
18B
100
AcDbEntity
  8
NONE
  6
CONTINUOUS
 62
     6
100
AcDbLine
 10
-2.625
 20
1.513889
 30
0.0
 11
-2.583333
 21
1.472222
 31
0.0
  0
LINE
  5
18C
100
AcDbEntity
  8
NONE
  6
CONTINUOUS
 62
     6
100
AcDbLine
 10
-2.625
 20
1.555556
 30
0.0
 11
-2.583333
 21
1.513889
 31
0.0
  0
LINE
  5
18D
100
AcDbEntity
  8
NONE
  6
CONTINUOUS
 62
     6
100
AcDbLine
 10
-2.625
 20
1.597222
 30
0.0
 11
-2.583333
 21
1.555556
 31
0.0
  0
LINE
  5
18E
100
AcDbEntity
  8
NONE
  6
CONTINUOUS
 62
     6
100
AcDbLine
 10
-2.625
 20
1.638889
 30
0.0
 11
-2.583333
 21
1.597222
 31
0.0
  0
LINE
  5
18F
100
AcDbEntity
  8
NONE
  6
CONTINUOUS
 62
     6
100
AcDbLine
 10
-2.625
 20
1.680556
 30
0.0
 11
-2.583333
 21
1.638889
 31
0.0
  0
LINE
  5
190
100
AcDbEntity
  8
NONE
  6
CONTINUOUS
 62
     6
100
AcDbLine
 10
-2.625
 20
1.722222
 30
0.0
 11
-2.583333
 21
1.680556
 31
0.0
  0
LINE
  5
191
100
AcDbEntity
  8
NONE
  6
CONTINUOUS
 62
     6
100
AcDbLine
 10
-2.625
 20
1.763889
 30
0.0
 11
-2.583333
 21
1.722222
 31
0.0
  0
LINE
  5
192
100
AcDbEntity
  8
NONE
  6
CONTINUOUS
 62
     6
100
AcDbLine
 10
-2.625
 20
1.805556
 30
0.0
 11
-2.583333
 21
1.763889
 31
0.0
  0
LINE
  5
193
100
AcDbEntity
  8
NONE
  6
CONTINUOUS
 62
     6
100
AcDbLine
 10
-2.625
 20
1.847222
 30
0.0
 11
-2.583333
 21
1.805556
 31
0.0
  0
LINE
  5
194
100
AcDbEntity
  8
NONE
  6
CONTINUOUS
 62
     6
100
AcDbLine
 10
-2.625
 20
1.888889
 30
0.0
 11
-2.583333
 21
1.847222
 31
0.0
  0
LINE
  5
195
100
AcDbEntity
  8
NONE
  6
CONTINUOUS
 62
     6
100
AcDbLine
 10
-2.625
 20
1.930556
 30
0.0
 11
-2.583333
 21
1.888889
 31
0.0
  0
LINE
  5
196
100
AcDbEntity
  8
NONE
  6
CONTINUOUS
 62
     6
100
AcDbLine
 10
-2.625
 20
1.972222
 30
0.0
 11
-2.583333
 21
1.930556
 31
0.0
  0
LINE
  5
197
100
AcDbEntity
  8
NONE
  6
CONTINUOUS
 62
     6
100
AcDbLine
 10
-2.625
 20
2.013889
 30
0.0
 11
-2.583333
 21
1.972222
 31
0.0
  0
LINE
  5
198
100
AcDbEntity
  8
NONE
  6
CONTINUOUS
 62
     6
100
AcDbLine
 10
-2.625
 20
2.055556
 30
0.0
 11
-2.583333
 21
2.013889
 31
0.0
  0
LINE
  5
199
100
AcDbEntity
  8
NONE
  6
CONTINUOUS
 62
     6
100
AcDbLine
 10
-2.625
 20
2.097222
 30
0.0
 11
-2.583333
 21
2.055556
 31
0.0
  0
LINE
  5
19A
100
AcDbEntity
  8
NONE
  6
CONTINUOUS
 62
     6
100
AcDbLine
 10
-2.625
 20
2.138889
 30
0.0
 11
-2.583333
 21
2.097222
 31
0.0
  0
LINE
  5
19B
100
AcDbEntity
  8
NONE
  6
CONTINUOUS
 62
     6
100
AcDbLine
 10
-2.625
 20
2.180556
 30
0.0
 11
-2.583333
 21
2.138889
 31
0.0
  0
LINE
  5
19C
100
AcDbEntity
  8
NONE
  6
CONTINUOUS
 62
     6
100
AcDbLine
 10
-2.625
 20
2.222222
 30
0.0
 11
-2.583333
 21
2.180556
 31
0.0
  0
LINE
  5
19D
100
AcDbEntity
  8
NONE
  6
CONTINUOUS
 62
     6
100
AcDbLine
 10
-2.625
 20
2.263889
 30
0.0
 11
-2.583333
 21
2.222222
 31
0.0
  0
LINE
  5
19E
100
AcDbEntity
  8
NONE
  6
CONTINUOUS
 62
     6
100
AcDbLine
 10
-2.625
 20
2.305556
 30
0.0
 11
-2.583333
 21
2.263889
 31
0.0
  0
LINE
  5
19F
100
AcDbEntity
  8
NONE
  6
CONTINUOUS
 62
     6
100
AcDbLine
 10
-2.625
 20
2.347222
 30
0.0
 11
-2.583333
 21
2.305556
 31
0.0
  0
LINE
  5
1A0
100
AcDbEntity
  8
NONE
  6
CONTINUOUS
 62
     6
100
AcDbLine
 10
-2.625
 20
2.388889
 30
0.0
 11
-2.583333
 21
2.347222
 31
0.0
  0
LINE
  5
1A1
100
AcDbEntity
  8
NONE
  6
CONTINUOUS
 62
     6
100
AcDbLine
 10
-2.625
 20
2.430556
 30
0.0
 11
-2.583333
 21
2.388889
 31
0.0
  0
LINE
  5
1A2
100
AcDbEntity
  8
NONE
  6
CONTINUOUS
 62
     6
100
AcDbLine
 10
-2.625
 20
2.472222
 30
0.0
 11
-2.583333
 21
2.430556
 31
0.0
  0
LINE
  5
1A3
100
AcDbEntity
  8
NONE
  6
CONTINUOUS
 62
     6
100
AcDbLine
 10
-2.625
 20
2.513889
 30
0.0
 11
-2.583333
 21
2.472222
 31
0.0
  0
LINE
  5
1A4
100
AcDbEntity
  8
NONE
  6
CONTINUOUS
 62
     6
100
AcDbLine
 10
-2.625
 20
2.555556
 30
0.0
 11
-2.583333
 21
2.513889
 31
0.0
  0
LINE
  5
1A5
100
AcDbEntity
  8
NONE
  6
CONTINUOUS
 62
     6
100
AcDbLine
 10
-2.625
 20
2.597222
 30
0.0
 11
-2.583333
 21
2.555556
 31
0.0
  0
LINE
  5
1A6
100
AcDbEntity
  8
NONE
  6
CONTINUOUS
 62
     6
100
AcDbLine
 10
-2.625
 20
2.680556
 30
0.0
 11
-2.583333
 21
2.638889
 31
0.0
  0
LINE
  5
1A7
100
AcDbEntity
  8
NONE
  6
CONTINUOUS
 62
     6
100
AcDbLine
 10
-2.625
 20
2.722222
 30
0.0
 11
-2.583333
 21
2.680556
 31
0.0
  0
LINE
  5
1A8
100
AcDbEntity
  8
NONE
  6
CONTINUOUS
 62
     6
100
AcDbLine
 10
-2.625
 20
2.763889
 30
0.0
 11
-2.583333
 21
2.722222
 31
0.0
  0
LINE
  5
1A9
100
AcDbEntity
  8
NONE
  6
CONTINUOUS
 62
     6
100
AcDbLine
 10
-2.625
 20
2.805556
 30
0.0
 11
-2.583333
 21
2.763889
 31
0.0
  0
LINE
  5
1AA
100
AcDbEntity
  8
NONE
  6
CONTINUOUS
 62
     6
100
AcDbLine
 10
-2.625
 20
2.847222
 30
0.0
 11
-2.583333
 21
2.805556
 31
0.0
  0
LINE
  5
1AB
100
AcDbEntity
  8
NONE
  6
CONTINUOUS
 62
     6
100
AcDbLine
 10
-2.625
 20
2.888889
 30
0.0
 11
-2.583333
 21
2.847222
 31
0.0
  0
LINE
  5
1AC
100
AcDbEntity
  8
NONE
  6
CONTINUOUS
 62
     6
100
AcDbLine
 10
-2.625
 20
2.930556
 30
0.0
 11
-2.583333
 21
2.888889
 31
0.0
  0
LINE
  5
1AD
100
AcDbEntity
  8
NONE
  6
CONTINUOUS
 62
     6
100
AcDbLine
 10
-2.625
 20
2.972222
 30
0.0
 11
-2.583333
 21
2.930556
 31
0.0
  0
LINE
  5
1AE
100
AcDbEntity
  8
NONE
  6
CONTINUOUS
 62
     6
100
AcDbLine
 10
-2.625
 20
3.013889
 30
0.0
 11
-2.583333
 21
2.972222
 31
0.0
  0
LINE
  5
1AF
100
AcDbEntity
  8
NONE
  6
CONTINUOUS
 62
     6
100
AcDbLine
 10
-2.625
 20
3.055556
 30
0.0
 11
-2.583333
 21
3.013889
 31
0.0
  0
LINE
  5
1B0
100
AcDbEntity
  8
NONE
  6
CONTINUOUS
 62
     6
100
AcDbLine
 10
-2.625
 20
3.097222
 30
0.0
 11
-2.583333
 21
3.055556
 31
0.0
  0
LINE
  5
1B1
100
AcDbEntity
  8
NONE
  6
CONTINUOUS
 62
     6
100
AcDbLine
 10
-2.625
 20
3.138889
 30
0.0
 11
-2.583333
 21
3.097222
 31
0.0
  0
LINE
  5
1B2
100
AcDbEntity
  8
NONE
  6
CONTINUOUS
 62
     6
100
AcDbLine
 10
-2.625
 20
3.180556
 30
0.0
 11
-2.583333
 21
3.138889
 31
0.0
  0
LINE
  5
1B3
100
AcDbEntity
  8
NONE
  6
CONTINUOUS
 62
     6
100
AcDbLine
 10
-2.625
 20
3.222222
 30
0.0
 11
-2.583333
 21
3.180556
 31
0.0
  0
LINE
  5
1B4
100
AcDbEntity
  8
NONE
  6
CONTINUOUS
 62
     6
100
AcDbLine
 10
-2.625
 20
3.263889
 30
0.0
 11
-2.583333
 21
3.222222
 31
0.0
  0
LINE
  5
1B5
100
AcDbEntity
  8
NONE
  6
CONTINUOUS
 62
     6
100
AcDbLine
 10
-2.625
 20
3.305556
 30
0.0
 11
-2.583333
 21
3.263889
 31
0.0
  0
LINE
  5
1B6
100
AcDbEntity
  8
NONE
  6
CONTINUOUS
 62
     6
100
AcDbLine
 10
-2.625
 20
3.347222
 30
0.0
 11
-2.583333
 21
3.305556
 31
0.0
  0
LINE
  5
1B7
100
AcDbEntity
  8
NONE
  6
CONTINUOUS
 62
     6
100
AcDbLine
 10
-2.625
 20
3.388889
 30
0.0
 11
-2.583333
 21
3.347222
 31
0.0
  0
LINE
  5
1B8
100
AcDbEntity
  8
NONE
  6
CONTINUOUS
 62
     6
100
AcDbLine
 10
-2.625
 20
3.430556
 30
0.0
 11
-2.583333
 21
3.388889
 31
0.0
  0
LINE
  5
1B9
100
AcDbEntity
  8
NONE
  6
CONTINUOUS
 62
     6
100
AcDbLine
 10
-2.625
 20
3.472222
 30
0.0
 11
-2.583333
 21
3.430556
 31
0.0
  0
LINE
  5
1BA
100
AcDbEntity
  8
NONE
  6
CONTINUOUS
 62
     6
100
AcDbLine
 10
-2.625
 20
3.513889
 30
0.0
 11
-2.583333
 21
3.472222
 31
0.0
  0
LINE
  5
1BB
100
AcDbEntity
  8
NONE
  6
CONTINUOUS
 62
     6
100
AcDbLine
 10
-2.625
 20
3.555556
 30
0.0
 11
-2.583333
 21
3.513889
 31
0.0
  0
LINE
  5
1BC
100
AcDbEntity
  8
NONE
  6
CONTINUOUS
 62
     6
100
AcDbLine
 10
-2.625
 20
3.597222
 30
0.0
 11
-2.583333
 21
3.555556
 31
0.0
  0
LINE
  5
1BD
100
AcDbEntity
  8
NONE
  6
CONTINUOUS
 62
     6
100
AcDbLine
 10
-2.625
 20
3.680556
 30
0.0
 11
-2.597222
 21
3.652778
 31
0.0
  0
LINE
  5
1BE
100
AcDbEntity
  8
NONE
  6
CONTINUOUS
 62
     6
100
AcDbLine
 10
-2.625
 20
3.722222
 30
0.0
 11
-2.583333
 21
3.680556
 31
0.0
  0
LINE
  5
1BF
100
AcDbEntity
  8
NONE
  6
CONTINUOUS
 62
     6
100
AcDbLine
 10
-2.625
 20
3.763889
 30
0.0
 11
-2.583333
 21
3.722222
 31
0.0
  0
LINE
  5
1C0
100
AcDbEntity
  8
NONE
  6
CONTINUOUS
 62
     6
100
AcDbLine
 10
-2.625
 20
3.805556
 30
0.0
 11
-2.583333
 21
3.763889
 31
0.0
  0
LINE
  5
1C1
100
AcDbEntity
  8
NONE
  6
CONTINUOUS
 62
     6
100
AcDbLine
 10
-2.125
 20
3.805556
 30
0.0
 11
-2.083333
 21
3.763889
 31
0.0
  0
LINE
  5
1C2
100
AcDbEntity
  8
NONE
  6
CONTINUOUS
 62
     6
100
AcDbLine
 10
-2.125
 20
3.763889
 30
0.0
 11
-2.083333
 21
3.722222
 31
0.0
  0
LINE
  5
1C3
100
AcDbEntity
  8
NONE
  6
CONTINUOUS
 62
     6
100
AcDbLine
 10
-2.125
 20
3.722222
 30
0.0
 11
-2.083333
 21
3.680556
 31
0.0
  0
LINE
  5
1C4
100
AcDbEntity
  8
NONE
  6
CONTINUOUS
 62
     6
100
AcDbLine
 10
-2.125
 20
3.680556
 30
0.0
 11
-2.097222
 21
3.652778
 31
0.0
  0
LINE
  5
1C5
100
AcDbEntity
  8
NONE
  6
CONTINUOUS
 62
     6
100
AcDbLine
 10
-2.125
 20
3.597222
 30
0.0
 11
-2.083333
 21
3.555556
 31
0.0
  0
LINE
  5
1C6
100
AcDbEntity
  8
NONE
  6
CONTINUOUS
 62
     6
100
AcDbLine
 10
-2.125
 20
3.555556
 30
0.0
 11
-2.083333
 21
3.513889
 31
0.0
  0
LINE
  5
1C7
100
AcDbEntity
  8
NONE
  6
CONTINUOUS
 62
     6
100
AcDbLine
 10
-2.125
 20
3.513889
 30
0.0
 11
-2.083333
 21
3.472222
 31
0.0
  0
LINE
  5
1C8
100
AcDbEntity
  8
NONE
  6
CONTINUOUS
 62
     6
100
AcDbLine
 10
-2.125
 20
3.472222
 30
0.0
 11
-2.083333
 21
3.430556
 31
0.0
  0
LINE
  5
1C9
100
AcDbEntity
  8
NONE
  6
CONTINUOUS
 62
     6
100
AcDbLine
 10
-2.125
 20
3.430556
 30
0.0
 11
-2.083333
 21
3.388889
 31
0.0
  0
LINE
  5
1CA
100
AcDbEntity
  8
NONE
  6
CONTINUOUS
 62
     6
100
AcDbLine
 10
-2.125
 20
3.388889
 30
0.0
 11
-2.083333
 21
3.347222
 31
0.0
  0
LINE
  5
1CB
100
AcDbEntity
  8
NONE
  6
CONTINUOUS
 62
     6
100
AcDbLine
 10
-2.125
 20
3.347222
 30
0.0
 11
-2.083333
 21
3.305556
 31
0.0
  0
LINE
  5
1CC
100
AcDbEntity
  8
NONE
  6
CONTINUOUS
 62
     6
100
AcDbLine
 10
-2.125
 20
3.305556
 30
0.0
 11
-2.083333
 21
3.263889
 31
0.0
  0
LINE
  5
1CD
100
AcDbEntity
  8
NONE
  6
CONTINUOUS
 62
     6
100
AcDbLine
 10
-2.125
 20
3.263889
 30
0.0
 11
-2.083333
 21
3.222222
 31
0.0
  0
LINE
  5
1CE
100
AcDbEntity
  8
NONE
  6
CONTINUOUS
 62
     6
100
AcDbLine
 10
-2.125
 20
3.222222
 30
0.0
 11
-2.083333
 21
3.180556
 31
0.0
  0
LINE
  5
1CF
100
AcDbEntity
  8
NONE
  6
CONTINUOUS
 62
     6
100
AcDbLine
 10
-2.125
 20
3.180556
 30
0.0
 11
-2.083333
 21
3.138889
 31
0.0
  0
LINE
  5
1D0
100
AcDbEntity
  8
NONE
  6
CONTINUOUS
 62
     6
100
AcDbLine
 10
-2.125
 20
3.138889
 30
0.0
 11
-2.083333
 21
3.097222
 31
0.0
  0
LINE
  5
1D1
100
AcDbEntity
  8
NONE
  6
CONTINUOUS
 62
     6
100
AcDbLine
 10
-2.125
 20
3.097222
 30
0.0
 11
-2.083333
 21
3.055556
 31
0.0
  0
LINE
  5
1D2
100
AcDbEntity
  8
NONE
  6
CONTINUOUS
 62
     6
100
AcDbLine
 10
-2.125
 20
3.055556
 30
0.0
 11
-2.083333
 21
3.013889
 31
0.0
  0
LINE
  5
1D3
100
AcDbEntity
  8
NONE
  6
CONTINUOUS
 62
     6
100
AcDbLine
 10
-2.125
 20
3.013889
 30
0.0
 11
-2.083333
 21
2.972222
 31
0.0
  0
LINE
  5
1D4
100
AcDbEntity
  8
NONE
  6
CONTINUOUS
 62
     6
100
AcDbLine
 10
-2.125
 20
2.972222
 30
0.0
 11
-2.083333
 21
2.930556
 31
0.0
  0
LINE
  5
1D5
100
AcDbEntity
  8
NONE
  6
CONTINUOUS
 62
     6
100
AcDbLine
 10
-2.125
 20
2.930556
 30
0.0
 11
-2.083333
 21
2.888889
 31
0.0
  0
LINE
  5
1D6
100
AcDbEntity
  8
NONE
  6
CONTINUOUS
 62
     6
100
AcDbLine
 10
-2.125
 20
2.888889
 30
0.0
 11
-2.083333
 21
2.847222
 31
0.0
  0
LINE
  5
1D7
100
AcDbEntity
  8
NONE
  6
CONTINUOUS
 62
     6
100
AcDbLine
 10
-2.125
 20
2.847222
 30
0.0
 11
-2.083333
 21
2.805556
 31
0.0
  0
LINE
  5
1D8
100
AcDbEntity
  8
NONE
  6
CONTINUOUS
 62
     6
100
AcDbLine
 10
-2.125
 20
2.805556
 30
0.0
 11
-2.083333
 21
2.763889
 31
0.0
  0
LINE
  5
1D9
100
AcDbEntity
  8
NONE
  6
CONTINUOUS
 62
     6
100
AcDbLine
 10
-2.125
 20
2.763889
 30
0.0
 11
-2.083333
 21
2.722222
 31
0.0
  0
LINE
  5
1DA
100
AcDbEntity
  8
NONE
  6
CONTINUOUS
 62
     6
100
AcDbLine
 10
-2.125
 20
2.722222
 30
0.0
 11
-2.083333
 21
2.680556
 31
0.0
  0
LINE
  5
1DB
100
AcDbEntity
  8
NONE
  6
CONTINUOUS
 62
     6
100
AcDbLine
 10
-2.125
 20
2.680556
 30
0.0
 11
-2.083333
 21
2.638889
 31
0.0
  0
LINE
  5
1DC
100
AcDbEntity
  8
NONE
  6
CONTINUOUS
 62
     6
100
AcDbLine
 10
-2.125
 20
2.597222
 30
0.0
 11
-2.083333
 21
2.555556
 31
0.0
  0
LINE
  5
1DD
100
AcDbEntity
  8
NONE
  6
CONTINUOUS
 62
     6
100
AcDbLine
 10
-2.125
 20
2.555556
 30
0.0
 11
-2.083333
 21
2.513889
 31
0.0
  0
LINE
  5
1DE
100
AcDbEntity
  8
NONE
  6
CONTINUOUS
 62
     6
100
AcDbLine
 10
-2.125
 20
2.513889
 30
0.0
 11
-2.083333
 21
2.472222
 31
0.0
  0
LINE
  5
1DF
100
AcDbEntity
  8
NONE
  6
CONTINUOUS
 62
     6
100
AcDbLine
 10
-2.125
 20
2.472222
 30
0.0
 11
-2.083333
 21
2.430556
 31
0.0
  0
LINE
  5
1E0
100
AcDbEntity
  8
NONE
  6
CONTINUOUS
 62
     6
100
AcDbLine
 10
-2.125
 20
2.430556
 30
0.0
 11
-2.083333
 21
2.388889
 31
0.0
  0
LINE
  5
1E1
100
AcDbEntity
  8
NONE
  6
CONTINUOUS
 62
     6
100
AcDbLine
 10
-2.125
 20
2.388889
 30
0.0
 11
-2.083333
 21
2.347222
 31
0.0
  0
LINE
  5
1E2
100
AcDbEntity
  8
NONE
  6
CONTINUOUS
 62
     6
100
AcDbLine
 10
-2.125
 20
2.347222
 30
0.0
 11
-2.083333
 21
2.305556
 31
0.0
  0
LINE
  5
1E3
100
AcDbEntity
  8
NONE
  6
CONTINUOUS
 62
     6
100
AcDbLine
 10
-2.125
 20
2.305556
 30
0.0
 11
-2.083333
 21
2.263889
 31
0.0
  0
LINE
  5
1E4
100
AcDbEntity
  8
NONE
  6
CONTINUOUS
 62
     6
100
AcDbLine
 10
-2.125
 20
2.263889
 30
0.0
 11
-2.083333
 21
2.222222
 31
0.0
  0
LINE
  5
1E5
100
AcDbEntity
  8
NONE
  6
CONTINUOUS
 62
     6
100
AcDbLine
 10
-2.125
 20
2.222222
 30
0.0
 11
-2.083333
 21
2.180556
 31
0.0
  0
LINE
  5
1E6
100
AcDbEntity
  8
NONE
  6
CONTINUOUS
 62
     6
100
AcDbLine
 10
-2.125
 20
2.180556
 30
0.0
 11
-2.083333
 21
2.138889
 31
0.0
  0
LINE
  5
1E7
100
AcDbEntity
  8
NONE
  6
CONTINUOUS
 62
     6
100
AcDbLine
 10
-2.125
 20
2.138889
 30
0.0
 11
-2.083333
 21
2.097222
 31
0.0
  0
LINE
  5
1E8
100
AcDbEntity
  8
NONE
  6
CONTINUOUS
 62
     6
100
AcDbLine
 10
-2.125
 20
2.097222
 30
0.0
 11
-2.083333
 21
2.055556
 31
0.0
  0
LINE
  5
1E9
100
AcDbEntity
  8
NONE
  6
CONTINUOUS
 62
     6
100
AcDbLine
 10
-2.125
 20
2.055556
 30
0.0
 11
-2.083333
 21
2.013889
 31
0.0
  0
LINE
  5
1EA
100
AcDbEntity
  8
NONE
  6
CONTINUOUS
 62
     6
100
AcDbLine
 10
-2.125
 20
2.013889
 30
0.0
 11
-2.083333
 21
1.972222
 31
0.0
  0
LINE
  5
1EB
100
AcDbEntity
  8
NONE
  6
CONTINUOUS
 62
     6
100
AcDbLine
 10
-2.125
 20
1.972222
 30
0.0
 11
-2.083333
 21
1.930556
 31
0.0
  0
LINE
  5
1EC
100
AcDbEntity
  8
NONE
  6
CONTINUOUS
 62
     6
100
AcDbLine
 10
-2.125
 20
1.930556
 30
0.0
 11
-2.083333
 21
1.888889
 31
0.0
  0
LINE
  5
1ED
100
AcDbEntity
  8
NONE
  6
CONTINUOUS
 62
     6
100
AcDbLine
 10
-2.125
 20
1.888889
 30
0.0
 11
-2.083333
 21
1.847222
 31
0.0
  0
LINE
  5
1EE
100
AcDbEntity
  8
NONE
  6
CONTINUOUS
 62
     6
100
AcDbLine
 10
-2.125
 20
1.847222
 30
0.0
 11
-2.083333
 21
1.805556
 31
0.0
  0
LINE
  5
1EF
100
AcDbEntity
  8
NONE
  6
CONTINUOUS
 62
     6
100
AcDbLine
 10
-2.125
 20
1.805556
 30
0.0
 11
-2.083333
 21
1.763889
 31
0.0
  0
LINE
  5
1F0
100
AcDbEntity
  8
NONE
  6
CONTINUOUS
 62
     6
100
AcDbLine
 10
-2.125
 20
1.763889
 30
0.0
 11
-2.083333
 21
1.722222
 31
0.0
  0
LINE
  5
1F1
100
AcDbEntity
  8
NONE
  6
CONTINUOUS
 62
     6
100
AcDbLine
 10
-2.125
 20
1.722222
 30
0.0
 11
-2.083333
 21
1.680556
 31
0.0
  0
LINE
  5
1F2
100
AcDbEntity
  8
NONE
  6
CONTINUOUS
 62
     6
100
AcDbLine
 10
-2.125
 20
1.680556
 30
0.0
 11
-2.083333
 21
1.638889
 31
0.0
  0
LINE
  5
1F3
100
AcDbEntity
  8
NONE
  6
CONTINUOUS
 62
     6
100
AcDbLine
 10
-2.125
 20
1.638889
 30
0.0
 11
-2.083333
 21
1.597222
 31
0.0
  0
LINE
  5
1F4
100
AcDbEntity
  8
NONE
  6
CONTINUOUS
 62
     6
100
AcDbLine
 10
-2.125
 20
1.597222
 30
0.0
 11
-2.083333
 21
1.555556
 31
0.0
  0
LINE
  5
1F5
100
AcDbEntity
  8
NONE
  6
CONTINUOUS
 62
     6
100
AcDbLine
 10
-2.125
 20
1.555556
 30
0.0
 11
-2.083333
 21
1.513889
 31
0.0
  0
LINE
  5
1F6
100
AcDbEntity
  8
NONE
  6
CONTINUOUS
 62
     6
100
AcDbLine
 10
-2.125
 20
1.513889
 30
0.0
 11
-2.083333
 21
1.472222
 31
0.0
  0
LINE
  5
1F7
100
AcDbEntity
  8
NONE
  6
CONTINUOUS
 62
     6
100
AcDbLine
 10
-2.125
 20
1.472222
 30
0.0
 11
-2.083333
 21
1.430556
 31
0.0
  0
LINE
  5
1F8
100
AcDbEntity
  8
NONE
  6
CONTINUOUS
 62
     6
100
AcDbLine
 10
-2.125
 20
1.430556
 30
0.0
 11
-2.083333
 21
1.388889
 31
0.0
  0
LINE
  5
1F9
100
AcDbEntity
  8
NONE
  6
CONTINUOUS
 62
     6
100
AcDbLine
 10
-2.125
 20
1.388889
 30
0.0
 11
-2.083333
 21
1.347222
 31
0.0
  0
LINE
  5
1FA
100
AcDbEntity
  8
NONE
  6
CONTINUOUS
 62
     6
100
AcDbLine
 10
-2.708333
 20
3.763889
 30
0.0
 11
-2.861111
 21
3.625
 31
0.0
  0
LINE
  5
1FB
100
AcDbEntity
  8
NONE
  6
CONTINUOUS
 62
     6
100
AcDbLine
 10
-2.708333
 20
3.638889
 30
0.0
 11
-2.861111
 21
3.5
 31
0.0
  0
LINE
  5
1FC
100
AcDbEntity
  8
NONE
  6
CONTINUOUS
 62
     6
100
AcDbLine
 10
-2.708333
 20
3.513889
 30
0.0
 11
-2.861111
 21
3.375
 31
0.0
  0
LINE
  5
1FD
100
AcDbEntity
  8
NONE
  6
CONTINUOUS
 62
     6
100
AcDbLine
 10
-2.708333
 20
3.388889
 30
0.0
 11
-2.861111
 21
3.25
 31
0.0
  0
LINE
  5
1FE
100
AcDbEntity
  8
NONE
  6
CONTINUOUS
 62
     6
100
AcDbLine
 10
-2.708333
 20
3.263889
 30
0.0
 11
-2.861111
 21
3.125
 31
0.0
  0
LINE
  5
1FF
100
AcDbEntity
  8
NONE
  6
CONTINUOUS
 62
     6
100
AcDbLine
 10
-2.708333
 20
3.138889
 30
0.0
 11
-2.861111
 21
3.0
 31
0.0
  0
LINE
  5
200
100
AcDbEntity
  8
NONE
  6
CONTINUOUS
 62
     6
100
AcDbLine
 10
-2.708333
 20
3.013889
 30
0.0
 11
-2.861111
 21
2.875
 31
0.0
  0
LINE
  5
201
100
AcDbEntity
  8
NONE
  6
CONTINUOUS
 62
     6
100
AcDbLine
 10
-2.708333
 20
2.888889
 30
0.0
 11
-2.861111
 21
2.75
 31
0.0
  0
LINE
  5
202
100
AcDbEntity
  8
NONE
  6
CONTINUOUS
 62
     6
100
AcDbLine
 10
-2.708333
 20
2.763889
 30
0.0
 11
-2.861111
 21
2.625
 31
0.0
  0
LINE
  5
203
100
AcDbEntity
  8
NONE
  6
CONTINUOUS
 62
     6
100
AcDbLine
 10
-2.708333
 20
2.638889
 30
0.0
 11
-2.861111
 21
2.5
 31
0.0
  0
LINE
  5
204
100
AcDbEntity
  8
NONE
  6
CONTINUOUS
 62
     6
100
AcDbLine
 10
-2.708333
 20
2.513889
 30
0.0
 11
-2.861111
 21
2.375
 31
0.0
  0
LINE
  5
205
100
AcDbEntity
  8
NONE
  6
CONTINUOUS
 62
     6
100
AcDbLine
 10
-2.708333
 20
2.388889
 30
0.0
 11
-2.861111
 21
2.25
 31
0.0
  0
LINE
  5
206
100
AcDbEntity
  8
NONE
  6
CONTINUOUS
 62
     6
100
AcDbLine
 10
-2.708333
 20
2.263889
 30
0.0
 11
-2.861111
 21
2.125
 31
0.0
  0
LINE
  5
207
100
AcDbEntity
  8
NONE
  6
CONTINUOUS
 62
     6
100
AcDbLine
 10
-2.708333
 20
2.138889
 30
0.0
 11
-2.861111
 21
2.0
 31
0.0
  0
LINE
  5
208
100
AcDbEntity
  8
NONE
  6
CONTINUOUS
 62
     6
100
AcDbLine
 10
-2.708333
 20
2.013889
 30
0.0
 11
-2.861111
 21
1.875
 31
0.0
  0
LINE
  5
209
100
AcDbEntity
  8
NONE
  6
CONTINUOUS
 62
     6
100
AcDbLine
 10
-2.708333
 20
1.888889
 30
0.0
 11
-2.861111
 21
1.75
 31
0.0
  0
LINE
  5
20A
100
AcDbEntity
  8
NONE
  6
CONTINUOUS
 62
     6
100
AcDbLine
 10
-2.708333
 20
1.763889
 30
0.0
 11
-2.861111
 21
1.625
 31
0.0
  0
LINE
  5
20B
100
AcDbEntity
  8
NONE
  6
CONTINUOUS
 62
     6
100
AcDbLine
 10
-2.708333
 20
1.638889
 30
0.0
 11
-2.861111
 21
1.5
 31
0.0
  0
LINE
  5
20C
100
AcDbEntity
  8
NONE
  6
CONTINUOUS
 62
     6
100
AcDbLine
 10
-2.708333
 20
1.513889
 30
0.0
 11
-2.861111
 21
1.375
 31
0.0
  0
LINE
  5
20D
100
AcDbEntity
  8
NONE
  6
CONTINUOUS
 62
     6
100
AcDbLine
 10
-2.708333
 20
1.388889
 30
0.0
 11
-2.861111
 21
1.25
 31
0.0
  0
LINE
  5
20E
100
AcDbEntity
  8
NONE
  6
CONTINUOUS
 62
     6
100
AcDbLine
 10
-2.708333
 20
1.263889
 30
0.0
 11
-2.861111
 21
1.125
 31
0.0
  0
LINE
  5
20F
100
AcDbEntity
  8
NONE
  6
CONTINUOUS
 62
     6
100
AcDbLine
 10
-2.708333
 20
1.138889
 30
0.0
 11
-2.861111
 21
1.0
 31
0.0
  0
LINE
  5
210
100
AcDbEntity
  8
NONE
  6
CONTINUOUS
 62
     6
100
AcDbLine
 10
-2.708333
 20
1.013889
 30
0.0
 11
-2.861111
 21
0.875
 31
0.0
  0
LINE
  5
211
100
AcDbEntity
  8
NONE
  6
CONTINUOUS
 62
     6
100
AcDbLine
 10
-2.708333
 20
0.888889
 30
0.0
 11
-2.861111
 21
0.75
 31
0.0
  0
LINE
  5
212
100
AcDbEntity
  8
NONE
  6
CONTINUOUS
 62
     6
100
AcDbLine
 10
-2.708333
 20
0.763889
 30
0.0
 11
-2.861111
 21
0.625
 31
0.0
  0
LINE
  5
213
100
AcDbEntity
  8
NONE
  6
CONTINUOUS
 62
     6
100
AcDbLine
 10
-2.708333
 20
0.638889
 30
0.0
 11
-2.861111
 21
0.5
 31
0.0
  0
LINE
  5
214
100
AcDbEntity
  8
NONE
  6
CONTINUOUS
 62
     6
100
AcDbLine
 10
-2.708333
 20
0.513889
 30
0.0
 11
-2.861111
 21
0.375
 31
0.0
  0
LINE
  5
215
100
AcDbEntity
  8
NONE
  6
CONTINUOUS
 62
     6
100
AcDbLine
 10
-2.708333
 20
0.388889
 30
0.0
 11
-2.861111
 21
0.25
 31
0.0
  0
LINE
  5
216
100
AcDbEntity
  8
NONE
  6
CONTINUOUS
 62
     6
100
AcDbLine
 10
-2.708333
 20
0.263889
 30
0.0
 11
-2.861111
 21
0.125
 31
0.0
  0
LINE
  5
217
100
AcDbEntity
  8
NONE
  6
CONTINUOUS
 62
     6
100
AcDbLine
 10
-2.708333
 20
0.138889
 30
0.0
 11
-2.861111
 21
0.0
 31
0.0
  0
LINE
  5
218
100
AcDbEntity
  8
NONE
  6
CONTINUOUS
 62
     6
100
AcDbLine
 10
-2.708333
 20
0.013889
 30
0.0
 11
-2.861111
 21
-0.125
 31
0.0
  0
LINE
  5
219
100
AcDbEntity
  8
NONE
  6
CONTINUOUS
 62
     6
100
AcDbLine
 10
-2.708333
 20
-0.111111
 30
0.0
 11
-2.861111
 21
-0.25
 31
0.0
  0
LINE
  5
21A
100
AcDbEntity
  8
NONE
  6
CONTINUOUS
 62
     6
100
AcDbLine
 10
-2.708333
 20
-0.236111
 30
0.0
 11
-2.861111
 21
-0.375
 31
0.0
  0
LINE
  5
21B
100
AcDbEntity
  8
NONE
  6
CONTINUOUS
 62
     6
100
AcDbLine
 10
-2.708333
 20
-0.361111
 30
0.0
 11
-2.861111
 21
-0.5
 31
0.0
  0
LINE
  5
21C
100
AcDbEntity
  8
NONE
  6
CONTINUOUS
 62
     6
100
AcDbLine
 10
-2.708333
 20
-0.486111
 30
0.0
 11
-2.861111
 21
-0.625
 31
0.0
  0
LINE
  5
21D
100
AcDbEntity
  8
NONE
  6
CONTINUOUS
 62
     6
100
AcDbLine
 10
-2.708333
 20
-0.611111
 30
0.0
 11
-2.861111
 21
-0.75
 31
0.0
  0
LINE
  5
21E
100
AcDbEntity
  8
NONE
  6
CONTINUOUS
 62
     6
100
AcDbLine
 10
-2.708333
 20
-0.736111
 30
0.0
 11
-2.861111
 21
-0.875
 31
0.0
  0
LINE
  5
21F
100
AcDbEntity
  8
NONE
  6
CONTINUOUS
 62
     6
100
AcDbLine
 10
-2.708333
 20
-0.944444
 30
0.0
 11
-1.027778
 21
-0.944444
 31
0.0
  0
INSERT
  5
220
100
AcDbEntity
  8
NONE
100
AcDbBlockReference
  2
*G3
 10
0.0
 20
0.0
 30
0.0
  0
LINE
  5
221
100
AcDbEntity
  8
NONE
  6
CONTINUOUS
 62
     6
100
AcDbLine
 10
-2.541667
 20
-0.944444
 30
0.0
 11
-2.541667
 21
-2.027778
 31
0.0
  0
LINE
  5
222
100
AcDbEntity
  8
NONE
  6
CONTINUOUS
 62
     6
100
AcDbLine
 10
-2.708333
 20
-0.861111
 30
0.0
 11
-2.861111
 21
-1.0
 31
0.0
  0
LINE
  5
223
100
AcDbEntity
  8
NONE
  6
CONTINUOUS
 62
     6
100
AcDbLine
 10
-2.666667
 20
-0.944444
 30
0.0
 11
-2.861111
 21
-1.125
 31
0.0
  0
LINE
  5
224
100
AcDbEntity
  8
NONE
  6
CONTINUOUS
 62
     6
100
AcDbLine
 10
-2.541667
 20
-0.944444
 30
0.0
 11
-2.861111
 21
-1.25
 31
0.0
  0
LINE
  5
225
100
AcDbEntity
  8
NONE
  6
CONTINUOUS
 62
     6
100
AcDbLine
 10
-2.541667
 20
-1.069444
 30
0.0
 11
-2.861111
 21
-1.375
 31
0.0
  0
LINE
  5
226
100
AcDbEntity
  8
NONE
  6
CONTINUOUS
 62
     6
100
AcDbLine
 10
-2.541667
 20
-1.194444
 30
0.0
 11
-2.861111
 21
-1.5
 31
0.0
  0
LINE
  5
227
100
AcDbEntity
  8
NONE
  6
CONTINUOUS
 62
     6
100
AcDbLine
 10
-2.541667
 20
-1.319444
 30
0.0
 11
-2.861111
 21
-1.625
 31
0.0
  0
LINE
  5
228
100
AcDbEntity
  8
NONE
  6
CONTINUOUS
 62
     6
100
AcDbLine
 10
-2.541667
 20
-1.444444
 30
0.0
 11
-2.861111
 21
-1.75
 31
0.0
  0
LINE
  5
229
100
AcDbEntity
  8
NONE
  6
CONTINUOUS
 62
     6
100
AcDbLine
 10
-2.541667
 20
-1.569444
 30
0.0
 11
-2.861111
 21
-1.875
 31
0.0
  0
LWPOLYLINE
  5
22A
100
AcDbEntity
  8
NONE
  6
CONTINUOUS
 62
     6
100
AcDbPolyline
 90
        5
 70
   129
 10
-2.708333
 20
-0.819444
 10
-1.013889
 20
-0.819444
 10
-1.013889
 20
-1.0
 10
-2.708333
 20
-1.0
 10
-2.708333
 20
-0.819444
  0
LINE
  5
22B
100
AcDbEntity
  8
NONE
  6
CONTINUOUS
 62
     6
100
AcDbLine
 10
-2.861111
 20
3.722222
 30
0.0
 11
-2.791667
 21
3.791667
 31
0.0
  0
LINE
  5
22C
100
AcDbEntity
  8
NONE
  6
CONTINUOUS
 62
     6
100
AcDbLine
 10
-2.791667
 20
3.791667
 30
0.0
 11
-2.777778
 21
3.75
 31
0.0
  0
LINE
  5
22D
100
AcDbEntity
  8
NONE
  6
CONTINUOUS
 62
     6
100
AcDbLine
 10
-2.777778
 20
3.75
 30
0.0
 11
-2.708333
 21
3.847222
 31
0.0
  0
LINE
  5
22E
100
AcDbEntity
  8
NONE
  6
CONTINUOUS
 62
     6
100
AcDbLine
 10
-2.708333
 20
3.847222
 30
0.0
 11
-2.527778
 21
3.763889
 31
0.0
  0
LINE
  5
22F
100
AcDbEntity
  8
NONE
  6
CONTINUOUS
 62
     6
100
AcDbLine
 10
-2.527778
 20
3.763889
 30
0.0
 11
-2.458333
 21
3.833333
 31
0.0
  0
LINE
  5
230
100
AcDbEntity
  8
NONE
  6
CONTINUOUS
 62
     6
100
AcDbLine
 10
-2.458333
 20
3.833333
 30
0.0
 11
-2.402778
 21
3.680556
 31
0.0
  0
LINE
  5
231
100
AcDbEntity
  8
NONE
  6
CONTINUOUS
 62
     6
100
AcDbLine
 10
-2.402778
 20
3.680556
 30
0.0
 11
-2.333333
 21
3.888889
 31
0.0
  0
LINE
  5
232
100
AcDbEntity
  8
NONE
  6
CONTINUOUS
 62
     6
100
AcDbLine
 10
-2.333333
 20
3.888889
 30
0.0
 11
-2.291667
 21
3.805556
 31
0.0
  0
LINE
  5
233
100
AcDbEntity
  8
NONE
  6
CONTINUOUS
 62
     6
100
AcDbLine
 10
-2.291667
 20
3.805556
 30
0.0
 11
-2.0
 21
3.875
 31
0.0
  0
LINE
  5
234
100
AcDbEntity
  8
NONE
  6
CONTINUOUS
 62
     6
100
AcDbLine
 10
-1.861111
 20
0.763889
 30
0.0
 11
-1.833333
 21
0.763889
 31
0.0
  0
TEXT
  5
235
100
AcDbEntity
  8
NONE
 62
     7
100
AcDbText
 10
-1.486111
 20
0.625
 30
0.0
 40
0.133333
  1
Finish to just cover
 41
0.6
100
AcDbText
  0
TEXT
  5
236
100
AcDbEntity
  8
NONE
 62
     7
100
AcDbText
 10
-1.486111
 20
0.458333
 30
0.0
 40
0.133333
  1
edge of throat
 41
0.6
100
AcDbText
  0
LINE
  5
237
100
AcDbEntity
  8
NONE
  6
CONTINUOUS
 62
     6
100
AcDbLine
 10
-0.986111
 20
-0.736111
 30
0.0
 11
-0.486111
 21
-0.736111
 31
0.0
  0
TEXT
  5
238
100
AcDbEntity
  8
NONE
 62
     7
100
AcDbText
 10
0.0
 20
0.0
 30
0.0
 40
0.133333
  1
Reinf. conc.
 41
0.6
 72
     1
 11
-1.222222
 21
-1.402778
 31
0.0
100
AcDbText
  0
TEXT
  5
239
100
AcDbEntity
  8
NONE
 62
     7
100
AcDbText
 10
0.0
 20
0.0
 30
0.0
 40
0.133333
  1
hearth base
 41
0.6
 72
     1
 11
-1.222222
 21
-1.569444
 31
0.0
100
AcDbText
  0
LINE
  5
23A
100
AcDbEntity
  8
NONE
  6
CONTINUOUS
 62
     6
100
AcDbLine
 10
-1.527778
 20
0.166667
 30
0.0
 11
-2.319444
 21
0.263889
 31
0.0
  0
POLYLINE
  5
23B
100
AcDbEntity
  8
NONE
  6
CONTINUOUS
 62
     6
100
AcDb2dPolyline
 66
     1
 10
0.0
 20
0.0
 30
0.0
 40
0.014
 41
0.014
 75
     5
  0
VERTEX
  5
23C
100
AcDbEntity
  8
NONE
  6
CONTINUOUS
 62
     6
100
AcDbVertex
100
AcDb2dVertex
 10
-2.444444
 20
0.277778
 30
0.0
  0
VERTEX
  5
23D
100
AcDbEntity
  8
NONE
  6
CONTINUOUS
 62
     6
100
AcDbVertex
100
AcDb2dVertex
 10
-2.319444
 20
0.305556
 30
0.0
  0
VERTEX
  5
23E
100
AcDbEntity
  8
NONE
  6
CONTINUOUS
 62
     6
100
AcDbVertex
100
AcDb2dVertex
 10
-2.319444
 20
0.263889
 30
0.0
  0
VERTEX
  5
23F
100
AcDbEntity
  8
NONE
  6
CONTINUOUS
 62
     6
100
AcDbVertex
100
AcDb2dVertex
 10
-2.319444
 20
0.222222
 30
0.0
  0
VERTEX
  5
240
100
AcDbEntity
  8
NONE
  6
CONTINUOUS
 62
     6
100
AcDbVertex
100
AcDb2dVertex
 10
-2.444444
 20
0.277778
 30
0.0
  0
SEQEND
  5
241
100
AcDbEntity
  8
NONE
  6
CONTINUOUS
  0
LINE
  5
242
100
AcDbEntity
  8
NONE
  6
CONTINUOUS
 62
     6
100
AcDbLine
 10
-1.5
 20
0.069445
 30
0.0
 11
-1.861111
 21
-0.180556
 31
0.0
  0
POLYLINE
  5
243
100
AcDbEntity
  8
NONE
  6
CONTINUOUS
 62
     6
100
AcDb2dPolyline
 66
     1
 10
0.0
 20
0.0
 30
0.0
 40
0.014
 41
0.014
 75
     5
  0
VERTEX
  5
244
100
AcDbEntity
  8
NONE
  6
CONTINUOUS
 62
     6
100
AcDbVertex
100
AcDb2dVertex
 10
-1.958333
 20
-0.25
 30
0.0
  0
VERTEX
  5
245
100
AcDbEntity
  8
NONE
  6
CONTINUOUS
 62
     6
100
AcDbVertex
100
AcDb2dVertex
 10
-1.888889
 20
-0.152778
 30
0.0
  0
VERTEX
  5
246
100
AcDbEntity
  8
NONE
  6
CONTINUOUS
 62
     6
100
AcDbVertex
100
AcDb2dVertex
 10
-1.861111
 20
-0.180556
 30
0.0
  0
VERTEX
  5
247
100
AcDbEntity
  8
NONE
  6
CONTINUOUS
 62
     6
100
AcDbVertex
100
AcDb2dVertex
 10
-1.833333
 20
-0.208333
 30
0.0
  0
VERTEX
  5
248
100
AcDbEntity
  8
NONE
  6
CONTINUOUS
 62
     6
100
AcDbVertex
100
AcDb2dVertex
 10
-1.958333
 20
-0.25
 30
0.0
  0
SEQEND
  5
249
100
AcDbEntity
  8
NONE
  6
CONTINUOUS
  0
LINE
  5
24A
100
AcDbEntity
  8
NONE
  6
CONTINUOUS
 62
     6
100
AcDbLine
 10
-1.583333
 20
0.597222
 30
0.0
 11
-1.666667
 21
0.666667
 31
0.0
  0
POLYLINE
  5
24B
100
AcDbEntity
  8
NONE
  6
CONTINUOUS
 62
     6
100
AcDb2dPolyline
 66
     1
 10
0.0
 20
0.0
 30
0.0
 40
0.014
 41
0.014
 75
     5
  0
VERTEX
  5
24C
100
AcDbEntity
  8
NONE
  6
CONTINUOUS
 62
     6
100
AcDbVertex
100
AcDb2dVertex
 10
-1.763889
 20
0.736111
 30
0.0
  0
VERTEX
  5
24D
100
AcDbEntity
  8
NONE
  6
CONTINUOUS
 62
     6
100
AcDbVertex
100
AcDb2dVertex
 10
-1.638889
 20
0.694445
 30
0.0
  0
VERTEX
  5
24E
100
AcDbEntity
  8
NONE
  6
CONTINUOUS
 62
     6
100
AcDbVertex
100
AcDb2dVertex
 10
-1.666667
 20
0.666667
 30
0.0
  0
VERTEX
  5
24F
100
AcDbEntity
  8
NONE
  6
CONTINUOUS
 62
     6
100
AcDbVertex
100
AcDb2dVertex
 10
-1.694444
 20
0.638889
 30
0.0
  0
VERTEX
  5
250
100
AcDbEntity
  8
NONE
  6
CONTINUOUS
 62
     6
100
AcDbVertex
100
AcDb2dVertex
 10
-1.763889
 20
0.736111
 30
0.0
  0
SEQEND
  5
251
100
AcDbEntity
  8
NONE
  6
CONTINUOUS
  0
LINE
  5
252
100
AcDbEntity
  8
NONE
  6
CONTINUOUS
 62
     6
100
AcDbLine
 10
-1.055556
 20
-1.180556
 30
0.0
 11
-1.125
 21
-1.055556
 31
0.0
  0
POLYLINE
  5
253
100
AcDbEntity
  8
NONE
  6
CONTINUOUS
 62
     6
100
AcDb2dPolyline
 66
     1
 10
0.0
 20
0.0
 30
0.0
 40
0.014
 41
0.014
 75
     5
  0
VERTEX
  5
254
100
AcDbEntity
  8
NONE
  6
CONTINUOUS
 62
     6
100
AcDbVertex
100
AcDb2dVertex
 10
-1.194444
 20
-0.944444
 30
0.0
  0
VERTEX
  5
255
100
AcDbEntity
  8
NONE
  6
CONTINUOUS
 62
     6
100
AcDbVertex
100
AcDb2dVertex
 10
-1.083333
 20
-1.027778
 30
0.0
  0
VERTEX
  5
256
100
AcDbEntity
  8
NONE
  6
CONTINUOUS
 62
     6
100
AcDbVertex
100
AcDb2dVertex
 10
-1.125
 20
-1.055556
 30
0.0
  0
VERTEX
  5
257
100
AcDbEntity
  8
NONE
  6
CONTINUOUS
 62
     6
100
AcDbVertex
100
AcDb2dVertex
 10
-1.166667
 20
-1.083333
 30
0.0
  0
VERTEX
  5
258
100
AcDbEntity
  8
NONE
  6
CONTINUOUS
 62
     6
100
AcDbVertex
100
AcDb2dVertex
 10
-1.194444
 20
-0.944444
 30
0.0
  0
SEQEND
  5
259
100
AcDbEntity
  8
NONE
  6
CONTINUOUS
  0
LINE
  5
25A
100
AcDbEntity
  8
NONE
  6
CONTINUOUS
 62
     6
100
AcDbLine
 10
-3.027778
 20
-0.736111
 30
0.0
 11
-3.569444
 21
-0.736111
 31
0.0
  0
LINE
  5
25B
100
AcDbEntity
  8
NONE
  6
CONTINUOUS
 62
     6
100
AcDbLine
 10
-3.027778
 20
0.763889
 30
0.0
 11
-3.527778
 21
0.763889
 31
0.0
  0
LINE
  5
25C
100
AcDbEntity
  8
NONE
  6
CONTINUOUS
 62
     6
100
AcDbLine
 10
-3.027778
 20
1.347222
 30
0.0
 11
-3.555556
 21
1.347222
 31
0.0
  0
LINE
  5
25D
100
AcDbEntity
  8
NONE
  6
CONTINUOUS
 62
     6
100
AcDbLine
 10
-3.027778
 20
2.597222
 30
0.0
 11
-3.541667
 21
2.597222
 31
0.0
  0
LINE
  5
25E
100
AcDbEntity
  8
NONE
  6
CONTINUOUS
 62
     6
100
AcDbLine
 10
-1.527778
 20
3.527778
 30
0.0
 11
-2.083333
 21
3.291667
 31
0.0
  0
POLYLINE
  5
25F
100
AcDbEntity
  8
NONE
  6
CONTINUOUS
 62
     6
100
AcDb2dPolyline
 66
     1
 10
0.0
 20
0.0
 30
0.0
 40
0.014
 41
0.014
 75
     5
  0
VERTEX
  5
260
100
AcDbEntity
  8
NONE
  6
CONTINUOUS
 62
     6
100
AcDbVertex
100
AcDb2dVertex
 10
-2.194444
 20
3.236111
 30
0.0
  0
VERTEX
  5
261
100
AcDbEntity
  8
NONE
  6
CONTINUOUS
 62
     6
100
AcDbVertex
100
AcDb2dVertex
 10
-2.097222
 20
3.333333
 30
0.0
  0
VERTEX
  5
262
100
AcDbEntity
  8
NONE
  6
CONTINUOUS
 62
     6
100
AcDbVertex
100
AcDb2dVertex
 10
-2.083333
 20
3.291667
 30
0.0
  0
VERTEX
  5
263
100
AcDbEntity
  8
NONE
  6
CONTINUOUS
 62
     6
100
AcDbVertex
100
AcDb2dVertex
 10
-2.069444
 20
3.25
 30
0.0
  0
VERTEX
  5
264
100
AcDbEntity
  8
NONE
  6
CONTINUOUS
 62
     6
100
AcDbVertex
100
AcDb2dVertex
 10
-2.194444
 20
3.236111
 30
0.0
  0
SEQEND
  5
265
100
AcDbEntity
  8
NONE
  6
CONTINUOUS
  0
TEXT
  5
266
100
AcDbEntity
  8
NONE
 62
     7
100
AcDbText
 10
0.0
 20
0.0
 30
0.0
 40
0.133333
  1
(firebrick or refractory 
 41
0.6
 72
     1
 11
-1.555556
 21
-0.333333
 31
0.0
100
AcDbText
  0
TEXT
  5
267
100
AcDbEntity
  8
NONE
 62
     7
100
AcDbText
 10
0.0
 20
0.0
 30
0.0
 40
0.133333
  1
inner hearth)
 41
0.6
 72
     1
 11
-1.555556
 21
-0.5
 31
0.0
100
AcDbText
  0
LINE
  5
268
100
AcDbEntity
  8
NONE
  6
CONTINUOUS
 62
     6
100
AcDbLine
 10
-1.555556
 20
2.888889
 30
0.0
 11
-2.180556
 21
2.361111
 31
0.0
  0
POLYLINE
  5
269
100
AcDbEntity
  8
NONE
  6
CONTINUOUS
 62
     6
100
AcDb2dPolyline
 66
     1
 10
0.0
 20
0.0
 30
0.0
 40
0.014
 41
0.014
 75
     5
  0
VERTEX
  5
26A
100
AcDbEntity
  8
NONE
  6
CONTINUOUS
 62
     6
100
AcDbVertex
100
AcDb2dVertex
 10
-2.277778
 20
2.277778
 30
0.0
  0
VERTEX
  5
26B
100
AcDbEntity
  8
NONE
  6
CONTINUOUS
 62
     6
100
AcDbVertex
100
AcDb2dVertex
 10
-2.208333
 20
2.388889
 30
0.0
  0
VERTEX
  5
26C
100
AcDbEntity
  8
NONE
  6
CONTINUOUS
 62
     6
100
AcDbVertex
100
AcDb2dVertex
 10
-2.180556
 20
2.361111
 30
0.0
  0
VERTEX
  5
26D
100
AcDbEntity
  8
NONE
  6
CONTINUOUS
 62
     6
100
AcDbVertex
100
AcDb2dVertex
 10
-2.152778
 20
2.333333
 30
0.0
  0
VERTEX
  5
26E
100
AcDbEntity
  8
NONE
  6
CONTINUOUS
 62
     6
100
AcDbVertex
100
AcDb2dVertex
 10
-2.277778
 20
2.277778
 30
0.0
  0
SEQEND
  5
26F
100
AcDbEntity
  8
NONE
  6
CONTINUOUS
  0
LINE
  5
270
100
AcDbEntity
  8
NONE
  6
CONTINUOUS
 62
     6
100
AcDbLine
 10
-0.569444
 20
-0.555555
 30
0.0
 11
-0.722222
 21
-0.652778
 31
0.0
  0
POLYLINE
  5
271
100
AcDbEntity
  8
NONE
  6
CONTINUOUS
 62
     6
100
AcDb2dPolyline
 66
     1
 10
0.0
 20
0.0
 30
0.0
 40
0.014
 41
0.014
 75
     5
  0
VERTEX
  5
272
100
AcDbEntity
  8
NONE
  6
CONTINUOUS
 62
     6
100
AcDbVertex
100
AcDb2dVertex
 10
-0.833333
 20
-0.722222
 30
0.0
  0
VERTEX
  5
273
100
AcDbEntity
  8
NONE
  6
CONTINUOUS
 62
     6
100
AcDbVertex
100
AcDb2dVertex
 10
-0.75
 20
-0.611111
 30
0.0
  0
VERTEX
  5
274
100
AcDbEntity
  8
NONE
  6
CONTINUOUS
 62
     6
100
AcDbVertex
100
AcDb2dVertex
 10
-0.722222
 20
-0.652778
 30
0.0
  0
VERTEX
  5
275
100
AcDbEntity
  8
NONE
  6
CONTINUOUS
 62
     6
100
AcDbVertex
100
AcDb2dVertex
 10
-0.694444
 20
-0.694444
 30
0.0
  0
VERTEX
  5
276
100
AcDbEntity
  8
NONE
  6
CONTINUOUS
 62
     6
100
AcDbVertex
100
AcDb2dVertex
 10
-0.833333
 20
-0.722222
 30
0.0
  0
SEQEND
  5
277
100
AcDbEntity
  8
NONE
  6
CONTINUOUS
  0
TEXT
  5
278
100
AcDbEntity
  8
NONE
 62
     7
100
AcDbText
 10
0.0
 20
0.0
 30
0.0
 40
0.133333
  1
Superior Clay
 41
0.6
 72
     1
 11
-1.611111
 21
3.569444
 31
0.0
100
AcDbText
  0
TEXT
  5
279
100
AcDbEntity
  8
NONE
 62
     7
100
AcDbText
 10
0.0
 20
0.0
 30
0.0
 40
0.133333
  1
flue liner
 41
0.6
 72
     1
 11
-1.611111
 21
3.402778
 31
0.0
100
AcDbText
  0
TEXT
  5
27A
100
AcDbEntity
  8
NONE
 62
     7
100
AcDbText
 10
0.0
 20
0.0
 30
0.0
 40
0.133333
  1
Superior Clay
 41
0.6
 72
     1
 11
-1.388889
 21
2.958333
 31
0.0
100
AcDbText
  0
TEXT
  5
27B
100
AcDbEntity
  8
NONE
 62
     7
100
AcDbText
 10
0.0
 20
0.0
 30
0.0
 40
0.133333
  1
Smoke Chamber
 41
0.6
 72
     1
 11
-1.388889
 21
2.791667
 31
0.0
100
AcDbText
  0
TEXT
  5
27C
100
AcDbEntity
  8
NONE
 62
     7
100
AcDbText
 10
0.0
 20
0.0
 30
0.0
 40
0.133333
  1
K&W stainless
 41
0.6
 72
     1
 11
-1.736111
 21
2.347222
 31
0.0
100
AcDbText
  0
TEXT
  5
27D
100
AcDbEntity
  8
NONE
 62
     7
100
AcDbText
 10
0.0
 20
0.0
 30
0.0
 40
0.133333
  1
Damper
 41
0.6
 72
     1
 11
-1.736111
 21
2.180556
 31
0.0
100
AcDbText
  0
TEXT
  5
27E
100
AcDbEntity
  8
NONE
 62
     7
100
AcDbText
 10
0.0
 20
0.0
 30
0.0
 40
0.133333
  1
Superior Clay
 41
0.6
 72
     1
 11
-1.236111
 21
1.305556
 31
0.0
100
AcDbText
  0
TEXT
  5
27F
100
AcDbEntity
  8
NONE
 62
     7
100
AcDbText
 10
0.0
 20
0.0
 30
0.0
 40
0.133333
  1
Segmented
 41
0.6
 72
     1
 11
-1.236111
 21
1.138889
 31
0.0
100
AcDbText
  0
TEXT
  5
280
100
AcDbEntity
  8
NONE
 62
     7
100
AcDbText
 10
0.0
 20
0.0
 30
0.0
 40
0.133333
  1
Rumford
 41
0.6
 72
     1
 11
-1.236111
 21
0.972222
 31
0.0
100
AcDbText
  0
TEXT
  5
281
100
AcDbEntity
  8
NONE
 62
     7
100
AcDbText
 10
0.0
 20
0.0
 30
0.0
 40
0.133333
  1
Throat
 41
0.6
 72
     1
 11
-1.236111
 21
0.805555
 31
0.0
100
AcDbText
  0
TEXT
  5
282
100
AcDbEntity
  8
NONE
 62
     7
100
AcDbText
 10
0.0
 20
0.0
 30
0.0
 40
0.133333
  1
Std. 9" firebrick
 41
0.6
 72
     1
 11
-1.361111
 21
0.25
 31
0.0
100
AcDbText
 73
     3
  0
LINE
  5
283
100
AcDbEntity
  8
NONE
  6
CONTINUOUS
 62
     6
100
AcDbLine
 10
-1.625
 20
2.277778
 30
0.0
 11
-2.166667
 21
1.625
 31
0.0
  0
POLYLINE
  5
284
100
AcDbEntity
  8
NONE
  6
CONTINUOUS
 62
     6
100
AcDb2dPolyline
 66
     1
 10
0.0
 20
0.0
 30
0.0
 40
0.014
 41
0.014
 75
     5
  0
VERTEX
  5
285
100
AcDbEntity
  8
NONE
  6
CONTINUOUS
 62
     6
100
AcDbVertex
100
AcDb2dVertex
 10
-2.25
 20
1.527778
 30
0.0
  0
VERTEX
  5
286
100
AcDbEntity
  8
NONE
  6
CONTINUOUS
 62
     6
100
AcDbVertex
100
AcDb2dVertex
 10
-2.194444
 20
1.652778
 30
0.0
  0
VERTEX
  5
287
100
AcDbEntity
  8
NONE
  6
CONTINUOUS
 62
     6
100
AcDbVertex
100
AcDb2dVertex
 10
-2.166667
 20
1.625
 30
0.0
  0
VERTEX
  5
288
100
AcDbEntity
  8
NONE
  6
CONTINUOUS
 62
     6
100
AcDbVertex
100
AcDb2dVertex
 10
-2.138889
 20
1.597222
 30
0.0
  0
VERTEX
  5
289
100
AcDbEntity
  8
NONE
  6
CONTINUOUS
 62
     6
100
AcDbVertex
100
AcDb2dVertex
 10
-2.25
 20
1.527778
 30
0.0
  0
SEQEND
  5
28A
100
AcDbEntity
  8
NONE
  6
CONTINUOUS
  0
TEXT
  5
28B
100
AcDbEntity
  8
NONE
 62
     7
100
AcDbText
 10
0.0
 20
0.0
 30
0.0
 40
0.111111
  1
Floor
 41
0.6
 72
     1
 11
-0.513889
 21
-0.472222
 31
0.0
100
AcDbText
 73
     3
  0
LINE
  5
28C
100
AcDbEntity
  8
NONE
  6
CONTINUOUS
 62
     6
100
AcDbLine
 10
-2.597222
 20
-1.0
 30
0.0
 11
-2.861111
 21
-1.25
 31
0.0
  0
TEXT
  5
28D
100
AcDbEntity
  8
NONE
 62
     7
100
AcDbText
 10
0.0
 20
0.0
 30
0.0
 40
0.133333
  1
Reinf. conc.
 41
0.6
 72
     1
 11
-1.416667
 21
-1.819444
 31
0.0
100
AcDbText
  0
TEXT
  5
28E
100
AcDbEntity
  8
NONE
 62
     7
100
AcDbText
 10
0.0
 20
0.0
 30
0.0
 40
0.133333
  1
footer
 41
0.6
 72
     1
 11
-1.416667
 21
-1.986111
 31
0.0
100
AcDbText
  0
LWPOLYLINE
  5
28F
100
AcDbEntity
  8
NONE
  6
CONTINUOUS
 62
     6
100
AcDbPolyline
 90
        5
 70
   129
 10
-3.125
 20
-2.027778
 10
-1.402778
 20
-2.027778
 10
-1.402778
 20
-2.375
 10
-3.125
 20
-2.375
 10
-3.125
 20
-2.027778
  0
LINE
  5
290
100
AcDbEntity
  8
NONE
  6
CONTINUOUS
 62
     6
100
AcDbLine
 10
-2.888889
 20
-1.416667
 30
0.0
 11
-3.736111
 21
-1.416667
 31
0.0
  0
LINE
  5
291
100
AcDbEntity
  8
NONE
  6
CONTINUOUS
 62
     6
100
AcDbLine
 10
-3.027778
 20
-1.430556
 30
0.0
 11
-2.916667
 21
-1.527778
 31
0.0
  0
LINE
  5
292
100
AcDbEntity
  8
NONE
  6
CONTINUOUS
 62
     6
100
AcDbLine
 10
-3.138889
 20
-1.430556
 30
0.0
 11
-2.986111
 21
-1.583333
 31
0.0
  0
LINE
  5
293
100
AcDbEntity
  8
NONE
  6
CONTINUOUS
 62
     6
100
AcDbLine
 10
-3.236111
 20
-1.458333
 30
0.0
 11
-3.069444
 21
-1.625
 31
0.0
  0
LINE
  5
294
100
AcDbEntity
  8
NONE
  6
CONTINUOUS
 62
     6
100
AcDbLine
 10
-3.291667
 20
-1.458333
 30
0.0
 11
-3.402778
 21
-1.569444
 31
0.0
  0
LINE
  5
295
100
AcDbEntity
  8
NONE
  6
CONTINUOUS
 62
     6
100
AcDbLine
 10
-3.25
 20
-1.5
 30
0.0
 11
-3.361111
 21
-1.611111
 31
0.0
  0
LINE
  5
296
100
AcDbEntity
  8
NONE
  6
CONTINUOUS
 62
     6
100
AcDbLine
 10
-3.375
 20
-1.444444
 30
0.0
 11
-3.486111
 21
-1.541667
 31
0.0
  0
LINE
  5
297
100
AcDbEntity
  8
NONE
  6
CONTINUOUS
 62
     6
100
AcDbLine
 10
-2.902778
 20
-1.583333
 30
0.0
 11
-3.055556
 21
-1.722222
 31
0.0
  0
LINE
  5
298
100
AcDbEntity
  8
NONE
  6
CONTINUOUS
 62
     6
100
AcDbLine
 10
-2.902778
 20
-1.666667
 30
0.0
 11
-3.041667
 21
-1.819444
 31
0.0
  0
LINE
  5
299
100
AcDbEntity
  8
NONE
  6
CONTINUOUS
 62
     6
100
AcDbLine
 10
-2.902778
 20
-1.777778
 30
0.0
 11
-3.027778
 21
-1.902778
 31
0.0
  0
LINE
  5
29A
100
AcDbEntity
  8
NONE
  6
CONTINUOUS
 62
     6
100
AcDbLine
 10
-2.541667
 20
-1.069444
 30
0.0
 11
-2.861111
 21
-1.375
 31
0.0
  0
LINE
  5
29B
100
AcDbEntity
  8
NONE
  6
CONTINUOUS
 62
     6
100
AcDbLine
 10
-2.541667
 20
-1.194444
 30
0.0
 11
-2.861111
 21
-1.5
 31
0.0
  0
LINE
  5
29C
100
AcDbEntity
  8
NONE
  6
CONTINUOUS
 62
     6
100
AcDbLine
 10
-2.541667
 20
-1.319444
 30
0.0
 11
-2.861111
 21
-1.625
 31
0.0
  0
LINE
  5
29D
100
AcDbEntity
  8
NONE
  6
CONTINUOUS
 62
     6
100
AcDbLine
 10
-2.541667
 20
-1.444444
 30
0.0
 11
-2.861111
 21
-1.75
 31
0.0
  0
LINE
  5
29E
100
AcDbEntity
  8
NONE
  6
CONTINUOUS
 62
     6
100
AcDbLine
 10
-2.541667
 20
-1.569444
 30
0.0
 11
-2.861111
 21
-1.875
 31
0.0
  0
LINE
  5
29F
100
AcDbEntity
  8
NONE
  6
CONTINUOUS
 62
     6
100
AcDbLine
 10
-2.541667
 20
-1.694444
 30
0.0
 11
-2.861111
 21
-2.0
 31
0.0
  0
LINE
  5
2A0
100
AcDbEntity
  8
NONE
  6
CONTINUOUS
 62
     6
100
AcDbLine
 10
-2.541667
 20
-1.819444
 30
0.0
 11
-2.75
 21
-2.027778
 31
0.0
  0
LINE
  5
2A1
100
AcDbEntity
  8
NONE
  6
CONTINUOUS
 62
     6
100
AcDbLine
 10
-2.541667
 20
-1.944444
 30
0.0
 11
-2.625
 21
-2.027778
 31
0.0
  0
LINE
  5
2A2
100
AcDbEntity
  8
NONE
  6
CONTINUOUS
 62
     6
100
AcDbLine
 10
-3.388889
 20
-0.986111
 30
0.0
 11
-3.125
 21
-0.902778
 31
0.0
  0
TEXT
  5
2A3
100
AcDbEntity
  8
NONE
 62
     7
100
AcDbText
 10
1.513889
 20
2.569444
 30
0.0
 40
0.133333
  1
(see table below)
 41
0.6
 11
1.513889
 21
2.569444
 31
0.0
100
AcDbText
 73
     3
  0
TEXT
  5
2A4
100
AcDbEntity
  8
NONE
 62
     7
100
AcDbText
 10
-3.541667
 20
-0.930555
 30
0.0
 40
0.133333
  1
4"
 41
0.6
 11
-3.541667
 21
-0.930555
 31
0.0
100
AcDbText
 73
     3
  0
LINE
  5
2A5
100
AcDbEntity
  8
NONE
  6
CONTINUOUS
 62
     6
100
AcDbLine
 10
-3.430556
 20
2.472222
 30
0.0
 11
-3.430556
 21
1.472222
 31
0.0
  0
POLYLINE
  5
2A6
100
AcDbEntity
  8
NONE
  6
CONTINUOUS
 62
     6
100
AcDb2dPolyline
 66
     1
 10
0.0
 20
0.0
 30
0.0
 40
0.014
 41
0.014
 75
     5
  0
VERTEX
  5
2A7
100
AcDbEntity
  8
NONE
  6
CONTINUOUS
 62
     6
100
AcDbVertex
100
AcDb2dVertex
 10
-3.430556
 20
2.597222
 30
0.0
  0
VERTEX
  5
2A8
100
AcDbEntity
  8
NONE
  6
CONTINUOUS
 62
     6
100
AcDbVertex
100
AcDb2dVertex
 10
-3.472222
 20
2.472222
 30
0.0
  0
VERTEX
  5
2A9
100
AcDbEntity
  8
NONE
  6
CONTINUOUS
 62
     6
100
AcDbVertex
100
AcDb2dVertex
 10
-3.430556
 20
2.472222
 30
0.0
  0
VERTEX
  5
2AA
100
AcDbEntity
  8
NONE
  6
CONTINUOUS
 62
     6
100
AcDbVertex
100
AcDb2dVertex
 10
-3.388889
 20
2.472222
 30
0.0
  0
VERTEX
  5
2AB
100
AcDbEntity
  8
NONE
  6
CONTINUOUS
 62
     6
100
AcDbVertex
100
AcDb2dVertex
 10
-3.430556
 20
2.597222
 30
0.0
  0
SEQEND
  5
2AC
100
AcDbEntity
  8
NONE
  6
CONTINUOUS
  0
POLYLINE
  5
2AD
100
AcDbEntity
  8
NONE
  6
CONTINUOUS
 62
     6
100
AcDb2dPolyline
 66
     1
 10
0.0
 20
0.0
 30
0.0
 40
0.014
 41
0.014
 75
     5
  0
VERTEX
  5
2AE
100
AcDbEntity
  8
NONE
  6
CONTINUOUS
 62
     6
100
AcDbVertex
100
AcDb2dVertex
 10
-3.430556
 20
1.347222
 30
0.0
  0
VERTEX
  5
2AF
100
AcDbEntity
  8
NONE
  6
CONTINUOUS
 62
     6
100
AcDbVertex
100
AcDb2dVertex
 10
-3.472222
 20
1.472222
 30
0.0
  0
VERTEX
  5
2B0
100
AcDbEntity
  8
NONE
  6
CONTINUOUS
 62
     6
100
AcDbVertex
100
AcDb2dVertex
 10
-3.430556
 20
1.472222
 30
0.0
  0
VERTEX
  5
2B1
100
AcDbEntity
  8
NONE
  6
CONTINUOUS
 62
     6
100
AcDbVertex
100
AcDb2dVertex
 10
-3.388889
 20
1.472222
 30
0.0
  0
VERTEX
  5
2B2
100
AcDbEntity
  8
NONE
  6
CONTINUOUS
 62
     6
100
AcDbVertex
100
AcDb2dVertex
 10
-3.430556
 20
1.347222
 30
0.0
  0
SEQEND
  5
2B3
100
AcDbEntity
  8
NONE
  6
CONTINUOUS
  0
LINE
  5
2B4
100
AcDbEntity
  8
NONE
  6
CONTINUOUS
 62
     6
100
AcDbLine
 10
-3.430556
 20
1.222222
 30
0.0
 11
-3.430556
 21
0.888889
 31
0.0
  0
POLYLINE
  5
2B5
100
AcDbEntity
  8
NONE
  6
CONTINUOUS
 62
     6
100
AcDb2dPolyline
 66
     1
 10
0.0
 20
0.0
 30
0.0
 40
0.014
 41
0.014
 75
     5
  0
VERTEX
  5
2B6
100
AcDbEntity
  8
NONE
  6
CONTINUOUS
 62
     6
100
AcDbVertex
100
AcDb2dVertex
 10
-3.430556
 20
1.347222
 30
0.0
  0
VERTEX
  5
2B7
100
AcDbEntity
  8
NONE
  6
CONTINUOUS
 62
     6
100
AcDbVertex
100
AcDb2dVertex
 10
-3.472222
 20
1.222222
 30
0.0
  0
VERTEX
  5
2B8
100
AcDbEntity
  8
NONE
  6
CONTINUOUS
 62
     6
100
AcDbVertex
100
AcDb2dVertex
 10
-3.430556
 20
1.222222
 30
0.0
  0
VERTEX
  5
2B9
100
AcDbEntity
  8
NONE
  6
CONTINUOUS
 62
     6
100
AcDbVertex
100
AcDb2dVertex
 10
-3.388889
 20
1.222222
 30
0.0
  0
VERTEX
  5
2BA
100
AcDbEntity
  8
NONE
  6
CONTINUOUS
 62
     6
100
AcDbVertex
100
AcDb2dVertex
 10
-3.430556
 20
1.347222
 30
0.0
  0
SEQEND
  5
2BB
100
AcDbEntity
  8
NONE
  6
CONTINUOUS
  0
POLYLINE
  5
2BC
100
AcDbEntity
  8
NONE
  6
CONTINUOUS
 62
     6
100
AcDb2dPolyline
 66
     1
 10
0.0
 20
0.0
 30
0.0
 40
0.014
 41
0.014
 75
     5
  0
VERTEX
  5
2BD
100
AcDbEntity
  8
NONE
  6
CONTINUOUS
 62
     6
100
AcDbVertex
100
AcDb2dVertex
 10
-3.430556
 20
0.763889
 30
0.0
  0
VERTEX
  5
2BE
100
AcDbEntity
  8
NONE
  6
CONTINUOUS
 62
     6
100
AcDbVertex
100
AcDb2dVertex
 10
-3.472222
 20
0.888889
 30
0.0
  0
VERTEX
  5
2BF
100
AcDbEntity
  8
NONE
  6
CONTINUOUS
 62
     6
100
AcDbVertex
100
AcDb2dVertex
 10
-3.430556
 20
0.888889
 30
0.0
  0
VERTEX
  5
2C0
100
AcDbEntity
  8
NONE
  6
CONTINUOUS
 62
     6
100
AcDbVertex
100
AcDb2dVertex
 10
-3.388889
 20
0.888889
 30
0.0
  0
VERTEX
  5
2C1
100
AcDbEntity
  8
NONE
  6
CONTINUOUS
 62
     6
100
AcDbVertex
100
AcDb2dVertex
 10
-3.430556
 20
0.763889
 30
0.0
  0
SEQEND
  5
2C2
100
AcDbEntity
  8
NONE
  6
CONTINUOUS
  0
LINE
  5
2C3
100
AcDbEntity
  8
NONE
  6
CONTINUOUS
 62
     6
100
AcDbLine
 10
-3.430556
 20
0.638889
 30
0.0
 11
-3.430556
 21
-0.611111
 31
0.0
  0
POLYLINE
  5
2C4
100
AcDbEntity
  8
NONE
  6
CONTINUOUS
 62
     6
100
AcDb2dPolyline
 66
     1
 10
0.0
 20
0.0
 30
0.0
 40
0.014
 41
0.014
 75
     5
  0
VERTEX
  5
2C5
100
AcDbEntity
  8
NONE
  6
CONTINUOUS
 62
     6
100
AcDbVertex
100
AcDb2dVertex
 10
-3.430556
 20
0.763889
 30
0.0
  0
VERTEX
  5
2C6
100
AcDbEntity
  8
NONE
  6
CONTINUOUS
 62
     6
100
AcDbVertex
100
AcDb2dVertex
 10
-3.472222
 20
0.638889
 30
0.0
  0
VERTEX
  5
2C7
100
AcDbEntity
  8
NONE
  6
CONTINUOUS
 62
     6
100
AcDbVertex
100
AcDb2dVertex
 10
-3.430556
 20
0.638889
 30
0.0
  0
VERTEX
  5
2C8
100
AcDbEntity
  8
NONE
  6
CONTINUOUS
 62
     6
100
AcDbVertex
100
AcDb2dVertex
 10
-3.388889
 20
0.638889
 30
0.0
  0
VERTEX
  5
2C9
100
AcDbEntity
  8
NONE
  6
CONTINUOUS
 62
     6
100
AcDbVertex
100
AcDb2dVertex
 10
-3.430556
 20
0.763889
 30
0.0
  0
SEQEND
  5
2CA
100
AcDbEntity
  8
NONE
  6
CONTINUOUS
  0
POLYLINE
  5
2CB
100
AcDbEntity
  8
NONE
  6
CONTINUOUS
 62
     6
100
AcDb2dPolyline
 66
     1
 10
0.0
 20
0.0
 30
0.0
 40
0.014
 41
0.014
 75
     5
  0
VERTEX
  5
2CC
100
AcDbEntity
  8
NONE
  6
CONTINUOUS
 62
     6
100
AcDbVertex
100
AcDb2dVertex
 10
-3.430556
 20
-0.736111
 30
0.0
  0
VERTEX
  5
2CD
100
AcDbEntity
  8
NONE
  6
CONTINUOUS
 62
     6
100
AcDbVertex
100
AcDb2dVertex
 10
-3.472222
 20
-0.611111
 30
0.0
  0
VERTEX
  5
2CE
100
AcDbEntity
  8
NONE
  6
CONTINUOUS
 62
     6
100
AcDbVertex
100
AcDb2dVertex
 10
-3.430556
 20
-0.611111
 30
0.0
  0
VERTEX
  5
2CF
100
AcDbEntity
  8
NONE
  6
CONTINUOUS
 62
     6
100
AcDbVertex
100
AcDb2dVertex
 10
-3.388889
 20
-0.611111
 30
0.0
  0
VERTEX
  5
2D0
100
AcDbEntity
  8
NONE
  6
CONTINUOUS
 62
     6
100
AcDbVertex
100
AcDb2dVertex
 10
-3.430556
 20
-0.736111
 30
0.0
  0
SEQEND
  5
2D1
100
AcDbEntity
  8
NONE
  6
CONTINUOUS
  0
TEXT
  5
2D2
100
AcDbEntity
  8
NONE
 62
     7
100
AcDbText
 10
0.0
 20
0.0
 30
0.0
 40
0.133333
  1
E
 41
0.6
 72
     1
 11
-3.458333
 21
0.055556
 31
0.0
100
AcDbText
 73
     3
  0
TEXT
  5
2D3
100
AcDbEntity
  8
NONE
 62
     7
100
AcDbText
 10
0.0
 20
0.0
 30
0.0
 40
0.133333
  1
F
 41
0.6
 72
     1
 11
-3.458333
 21
1.111111
 31
0.0
100
AcDbText
 73
     3
  0
TEXT
  5
2D4
100
AcDbEntity
  8
NONE
 62
     7
100
AcDbText
 10
0.0
 20
0.0
 30
0.0
 40
0.133333
  1
G
 41
0.6
 72
     1
 11
-3.472222
 21
2.041667
 31
0.0
100
AcDbText
 73
     3
  0
TEXT
  5
2D5
100
AcDbEntity
  8
NONE
 62
     7
100
AcDbText
 10
-0.25
 20
-0.888889
 30
0.0
 40
0.111111
  1
8"min.
 41
0.6
 11
-0.25
 21
-0.888889
 31
0.0
100
AcDbText
 73
     3
  0
LINE
  5
2D6
100
AcDbEntity
  8
NONE
  6
CONTINUOUS
 62
     6
100
AcDbLine
 10
2.888889
 20
-2.527778
 30
0.0
 11
2.888889
 21
-2.472222
 31
0.0
  0
INSERT
  5
2D7
100
AcDbEntity
  8
NONE
100
AcDbBlockReference
  2
*G2
 10
0.0
 20
0.0
 30
0.0
  0
TEXT
  5
2D8
100
AcDbEntity
  8
NONE
 62
     7
100
AcDbText
 10
1.388889
 20
1.166667
 30
0.0
 40
0.133333
  1
For fireplaces 30", 36", 42", 48", 60" 
 41
0.6
100
AcDbText
  0
TEXT
  5
2D9
100
AcDbEntity
  8
NONE
 62
     7
100
AcDbText
 10
1.388889
 20
1.0
 30
0.0
 40
0.133333
  1
and 72" wide as well as custom and 
 41
0.6
100
AcDbText
  0
TEXT
  5
2DA
100
AcDbEntity
  8
NONE
 62
     7
100
AcDbText
 10
1.388889
 20
0.833333
 30
0.0
 40
0.133333
  1
multi-sided fireplaces.  Each throat tile 
 41
0.6
100
AcDbText
  0
TEXT
  5
2DB
100
AcDbEntity
  8
NONE
 62
     7
100
AcDbText
 10
1.388889
 20
0.666667
 30
0.0
 40
0.133333
  1
is 12" wide, 10" deep and 13.5" high.
 41
0.6
100
AcDbText
  0
TEXT
  5
2DC
100
AcDbEntity
  8
NONE
 62
     7
100
AcDbText
 10
2.5
 20
1.916667
 30
0.0
 40
0.133333
  1
cast iron
 41
0.6
100
AcDbText
  0
TEXT
  5
2DD
100
AcDbEntity
  8
NONE
 62
     7
100
AcDbText
 10
2.5
 20
1.75
 30
0.0
 40
0.133333
  1
or steel
 41
0.6
100
AcDbText
  0
TEXT
  5
2DE
100
AcDbEntity
  8
NONE
 62
     7
100
AcDbText
 10
0.402778
 20
0.347222
 30
0.0
 40
0.133333
  1
By using the Superior Clay Segmented Throat system
 41
0.6
100
AcDbText
  0
TEXT
  5
2DF
100
AcDbEntity
  8
NONE
 62
     7
100
AcDbText
 10
0.402778
 20
0.180556
 30
0.0
 40
0.133333
  1
you can build large or modified Rumford fireplaces - 
 41
0.6
100
AcDbText
  0
TEXT
  5
2E0
100
AcDbEntity
  8
NONE
 62
     7
100
AcDbText
 10
0.402778
 20
0.013889
 30
0.0
 40
0.133333
  1
even multi-sided fireplaces.  Whether it's a six foot 
 41
0.6
100
AcDbText
  0
TEXT
  5
2E1
100
AcDbEntity
  8
NONE
 62
     7
100
AcDbText
 10
0.402778
 20
-0.152778
 30
0.0
 40
0.133333
  1
wide Rumford, a cooking fireplace or just a little deeper 
 41
0.6
100
AcDbText
  0
TEXT
  5
2E2
100
AcDbEntity
  8
NONE
 62
     7
100
AcDbText
 10
0.402778
 20
-0.319445
 30
0.0
 40
0.133333
  1
Rumford, the Segmented Throat Tile system lets you 
 41
0.6
100
AcDbText
  0
TEXT
  5
2E3
100
AcDbEntity
  8
NONE
 62
     7
100
AcDbText
 10
0.402778
 20
-0.486111
 30
0.0
 40
0.133333
  1
build the custom fireplace you need.
 41
0.6
100
AcDbText
  0
LINE
  5
2E4
100
AcDbEntity
  8
NONE
  6
CONTINUOUS
 62
     6
100
AcDbLine
 10
-1.861111
 20
1.347222
 30
0.0
 11
-1.861111
 21
0.777778
 31
0.0
  0
LINE
  5
2E5
100
AcDbEntity
  8
NONE
  6
CONTINUOUS
 62
     6
100
AcDbLine
 10
-1.861111
 20
1.347222
 30
0.0
 11
-2.305556
 21
1.347222
 31
0.0
  0
ARC
  5
2E6
100
AcDbEntity
  8
NONE
  6
CONTINUOUS
 62
     6
100
AcDbCircle
 10
-1.708333
 20
1.319444
 30
0.0
 40
0.541667
100
AcDbArc
 50
181.000001
 51
250.000002
  0
ARC
  5
2E7
100
AcDbEntity
  8
NONE
  6
CONTINUOUS
 62
     6
100
AcDbCircle
 10
-1.715278
 20
1.333333
 30
0.0
 40
0.590278
100
AcDbArc
 50
178.999997
 51
256.000002
  0
LINE
  5
2E8
100
AcDbEntity
  8
NONE
  6
CONTINUOUS
 62
     6
100
AcDbLine
 10
-2.25
 20
1.305556
 30
0.0
 11
-1.902778
 21
1.305556
 31
0.0
  0
LINE
  5
2E9
100
AcDbEntity
  8
NONE
  6
CONTINUOUS
 62
     6
100
AcDbLine
 10
-1.902778
 20
1.305556
 30
0.0
 11
-1.902778
 21
0.819445
 31
0.0
  0
LINE
  5
2EA
100
AcDbEntity
  8
NONE
  6
CONTINUOUS
 62
     8
100
AcDbLine
 10
-2.125
 20
1.277778
 30
0.0
 11
-1.986111
 21
1.277778
 31
0.0
  0
LINE
  5
2EB
100
AcDbEntity
  8
NONE
  6
CONTINUOUS
 62
     8
100
AcDbLine
 10
-1.986111
 20
1.277778
 30
0.0
 11
-1.986111
 21
1.111111
 31
0.0
  0
INSERT
  5
2EC
100
AcDbEntity
  8
NONE
100
AcDbBlockReference
  2
*G1
 10
0.0
 20
0.0
 30
0.0
  0
LINE
  5
2ED
100
AcDbEntity
  8
NONE
  6
CONTINUOUS
 62
     6
100
AcDbLine
 10
-1.861111
 20
0.75
 30
0.0
 11
-2.555556
 21
0.75
 31
0.0
  0
LINE
  5
2EE
100
AcDbEntity
  8
NONE
  6
CONTINUOUS
 62
     6
100
AcDbLine
 10
-1.861111
 20
0.569445
 30
0.0
 11
-2.541667
 21
0.569445
 31
0.0
  0
LINE
  5
2EF
100
AcDbEntity
  8
NONE
  6
CONTINUOUS
 62
     6
100
AcDbLine
 10
-2.541667
 20
0.944445
 30
0.0
 11
-2.152778
 21
0.944445
 31
0.0
  0
LINE
  5
2F0
100
AcDbEntity
  8
NONE
  6
CONTINUOUS
 62
     6
100
AcDbLine
 10
-2.541667
 20
1.125
 30
0.0
 11
-2.277778
 21
1.125
 31
0.0
  0
LINE
  5
2F1
100
AcDbEntity
  8
NONE
  6
CONTINUOUS
 62
     6
100
AcDbLine
 10
-2.180556
 20
0.763889
 30
0.0
 11
-2.180556
 21
0.930556
 31
0.0
  0
LINE
  5
2F2
100
AcDbEntity
  8
NONE
  6
CONTINUOUS
 62
     6
100
AcDbLine
 10
-2.305556
 20
0.944445
 30
0.0
 11
-2.305556
 21
1.125
 31
0.0
  0
LINE
  5
2F3
100
AcDbEntity
  8
NONE
  6
CONTINUOUS
 62
     8
100
AcDbLine
 10
-1.833333
 20
0.916667
 30
0.0
 11
-1.833333
 21
0.763889
 31
0.0
  0
LINE
  5
2F4
100
AcDbEntity
  8
NONE
  6
CONTINUOUS
 62
     8
100
AcDbLine
 10
-1.833333
 20
0.763889
 30
0.0
 11
-1.722222
 21
0.763889
 31
0.0
  0
LINE
  5
2F5
100
AcDbEntity
  8
NONE
  6
CONTINUOUS
 62
     6
100
AcDbLine
 10
-1.680556
 20
0.833333
 30
0.0
 11
-1.680556
 21
-0.736111
 31
0.0
  0
LINE
  5
2F6
100
AcDbEntity
  8
NONE
  6
CONTINUOUS
 62
     6
100
AcDbLine
 10
-1.847222
 20
-0.638889
 30
0.0
 11
-1.680556
 21
-0.638889
 31
0.0
  0
LINE
  5
2F7
100
AcDbEntity
  8
NONE
  6
CONTINUOUS
 62
     6
100
AcDbLine
 10
-1.847222
 20
-0.527778
 30
0.0
 11
-1.680556
 21
-0.527778
 31
0.0
  0
LINE
  5
2F8
100
AcDbEntity
  8
NONE
  6
CONTINUOUS
 62
     6
100
AcDbLine
 10
-1.833333
 20
-0.416667
 30
0.0
 11
-1.680556
 21
-0.416667
 31
0.0
  0
LINE
  5
2F9
100
AcDbEntity
  8
NONE
  6
CONTINUOUS
 62
     6
100
AcDbLine
 10
-1.791667
 20
-0.319444
 30
0.0
 11
-1.680556
 21
-0.319444
 31
0.0
  0
LINE
  5
2FA
100
AcDbEntity
  8
NONE
  6
CONTINUOUS
 62
     6
100
AcDbLine
 10
-1.722222
 20
-0.222222
 30
0.0
 11
-1.680556
 21
-0.222222
 31
0.0
  0
LINE
  5
2FB
100
AcDbEntity
  8
NONE
  6
CONTINUOUS
 62
     6
100
AcDbLine
 10
-1.847222
 20
0.652778
 30
0.0
 11
-1.763889
 21
0.652778
 31
0.0
  0
LINE
  5
2FC
100
AcDbEntity
  8
NONE
  6
CONTINUOUS
 62
     6
100
AcDbLine
 10
-1.847222
 20
0.541667
 30
0.0
 11
-1.680556
 21
0.541667
 31
0.0
  0
LINE
  5
2FD
100
AcDbEntity
  8
NONE
  6
CONTINUOUS
 62
     6
100
AcDbLine
 10
-1.833333
 20
0.430556
 30
0.0
 11
-1.680556
 21
0.430556
 31
0.0
  0
LINE
  5
2FE
100
AcDbEntity
  8
NONE
  6
CONTINUOUS
 62
     6
100
AcDbLine
 10
-1.777778
 20
0.333333
 30
0.0
 11
-1.680556
 21
0.333333
 31
0.0
  0
LINE
  5
2FF
100
AcDbEntity
  8
NONE
  6
CONTINUOUS
 62
     6
100
AcDbLine
 10
-1.722222
 20
0.222222
 30
0.0
 11
-1.680556
 21
0.222222
 31
0.0
  0
LINE
  5
300
100
AcDbEntity
  8
NONE
  6
CONTINUOUS
 62
     6
100
AcDbLine
 10
-1.152778
 20
1.152778
 30
0.0
 11
-1.819444
 21
1.069444
 31
0.0
  0
POLYLINE
  5
301
100
AcDbEntity
  8
NONE
  6
CONTINUOUS
 62
     6
100
AcDb2dPolyline
 66
     1
 10
0.0
 20
0.0
 30
0.0
 40
0.014
 41
0.014
 75
     5
  0
VERTEX
  5
302
100
AcDbEntity
  8
NONE
  6
CONTINUOUS
 62
     6
100
AcDbVertex
100
AcDb2dVertex
 10
-1.944444
 20
1.055556
 30
0.0
  0
VERTEX
  5
303
100
AcDbEntity
  8
NONE
  6
CONTINUOUS
 62
     6
100
AcDbVertex
100
AcDb2dVertex
 10
-1.819444
 20
1.111111
 30
0.0
  0
VERTEX
  5
304
100
AcDbEntity
  8
NONE
  6
CONTINUOUS
 62
     6
100
AcDbVertex
100
AcDb2dVertex
 10
-1.819444
 20
1.069444
 30
0.0
  0
VERTEX
  5
305
100
AcDbEntity
  8
NONE
  6
CONTINUOUS
 62
     6
100
AcDbVertex
100
AcDb2dVertex
 10
-1.819444
 20
1.027778
 30
0.0
  0
VERTEX
  5
306
100
AcDbEntity
  8
NONE
  6
CONTINUOUS
 62
     6
100
AcDbVertex
100
AcDb2dVertex
 10
-1.944444
 20
1.055556
 30
0.0
  0
SEQEND
  5
307
100
AcDbEntity
  8
NONE
  6
CONTINUOUS
  0
TEXT
  5
308
100
AcDbEntity
  8
NONE
 62
     7
100
AcDbText
 10
0.0
 20
0.0
 30
0.0
 40
0.155556
  1
Superior Clay Corporation, Uhrichsville, OH (800 848 6166)
 41
0.6
 72
     1
 11
-2.972222
 21
-4.513889
 31
0.0
100
AcDbText
  0
TEXT
  5
309
100
AcDbEntity
  8
NONE
 62
     7
100
AcDbText
 10
0.0
 20
0.0
 30
0.0
 40
0.155556
  1
(Design &Technical Service, Buckley Rumford Co. 360 385 9974 or buckley@rumford.com)
 41
0.6
 72
     1
 11
-2.972222
 21
-4.708333
 31
0.0
100
AcDbText
  0
INSERT
  5
30A
100
AcDbEntity
  8
NONE
100
AcDbBlockReference
  2
*G0
 10
0.0
 20
0.0
 30
0.0
  0
LWPOLYLINE
  5
30B
100
AcDbEntity
  8
NONE
  6
CONTINUOUS
 62
     6
100
AcDbPolyline
 90
        5
 70
   129
 10
1.430556
 20
-1.444444
 10
1.819444
 20
-1.444444
 10
1.819444
 20
-1.638889
 10
1.430556
 20
-1.638889
 10
1.430556
 20
-1.444444
  0
LWPOLYLINE
  5
30C
100
AcDbEntity
  8
NONE
  6
CONTINUOUS
 62
     6
100
AcDbPolyline
 90
        5
 70
   129
 10
1.583333
 20
-1.402778
 42
-0.414214
 10
1.625
 20
-1.361111
 42
-0.414214
 10
1.666667
 20
-1.402778
 42
-0.414214
 10
1.625
 20
-1.444444
 42
-0.414214
 10
1.583333
 20
-1.402778
 42
-0.414214
  0
TEXT
  5
30D
100
AcDbEntity
  8
NONE
 62
     7
100
AcDbText
 10
0.0
 20
0.0
 30
0.0
 40
0.1
  1
ash/air
 41
0.6
 72
     1
 11
1.041667
 21
-1.847222
 31
0.0
100
AcDbText
 73
     3
  0
LINE
  5
30E
100
AcDbEntity
  8
NONE
  6
CONTINUOUS
 62
     6
100
AcDbLine
 10
1.430556
 20
-1.861111
 30
0.0
 11
1.583333
 21
-1.611111
 31
0.0
  0
TEXT
  5
30F
100
AcDbEntity
  8
NONE
 62
     7
100
AcDbText
 10
0.0
 20
0.0
 30
0.0
 40
0.133333
  1
gas
 41
0.6
 72
     1
 11
1.319444
 21
-1.194444
 31
0.0
100
AcDbText
 73
     3
  0
LWPOLYLINE
  5
310
100
AcDbEntity
  8
NONE
  6
CONTINUOUS
 62
     6
100
AcDbPolyline
 90
        5
 70
   129
 10
-2.847222
 20
-1.138889
 10
-2.027778
 20
-1.138889
 10
-2.027778
 20
-1.319444
 10
-2.847222
 20
-1.319444
 10
-2.847222
 20
-1.138889
  0
LWPOLYLINE
  5
311
100
AcDbEntity
  8
NONE
  6
CONTINUOUS
 62
     6
100
AcDbPolyline
 90
        5
 70
   129
 10
-2.180556
 20
-0.736111
 10
-1.986111
 20
-0.736111
 10
-1.986111
 20
-1.416667
 10
-2.180556
 20
-1.416667
 10
-2.180556
 20
-0.736111
  0
LINE
  5
312
100
AcDbEntity
  8
NONE
  6
CONTINUOUS
 62
     6
100
AcDbLine
 10
1.527778
 20
-1.347222
 30
0.0
 11
1.597222
 21
-1.388889
 31
0.0
  0
LINE
  5
313
100
AcDbEntity
  8
NONE
  6
CONTINUOUS
 62
     6
100
AcDbLine
 10
-1.847222
 20
1.708333
 30
0.0
 11
-1.444444
 21
1.708333
 31
0.0
  0
ARC
  5
314
100
AcDbEntity
  8
NONE
  6
CONTINUOUS
 62
     6
100
AcDbCircle
 10
-1.430556
 20
1.652778
 30
0.0
 40
0.055556
100
AcDbArc
 50
265.999957
 51
95.000019
  0
LINE
  5
315
100
AcDbEntity
  8
NONE
  6
CONTINUOUS
 62
     6
100
AcDbLine
 10
-1.444444
 20
1.611111
 30
0.0
 11
-1.486111
 21
1.611111
 31
0.0
  0
LINE
  5
316
100
AcDbEntity
  8
NONE
  6
CONTINUOUS
 62
     6
100
AcDbLine
 10
-1.486111
 20
1.611111
 30
0.0
 11
-1.486111
 21
1.569444
 31
0.0
  0
LINE
  5
317
100
AcDbEntity
  8
NONE
  6
CONTINUOUS
 62
     6
100
AcDbLine
 10
-1.486111
 20
1.569444
 30
0.0
 11
-1.569444
 21
1.569444
 31
0.0
  0
LINE
  5
318
100
AcDbEntity
  8
NONE
  6
CONTINUOUS
 62
     6
100
AcDbLine
 10
-1.569444
 20
1.569444
 30
0.0
 11
-1.569444
 21
1.375
 31
0.0
  0
LINE
  5
319
100
AcDbEntity
  8
NONE
  6
CONTINUOUS
 62
     6
100
AcDbLine
 10
-1.569444
 20
1.375
 30
0.0
 11
-1.597222
 21
1.375
 31
0.0
  0
LINE
  5
31A
100
AcDbEntity
  8
NONE
  6
CONTINUOUS
 62
     6
100
AcDbLine
 10
-1.597222
 20
1.375
 30
0.0
 11
-1.597222
 21
1.208333
 31
0.0
  0
LINE
  5
31B
100
AcDbEntity
  8
NONE
  6
CONTINUOUS
 62
     6
100
AcDbLine
 10
-1.597222
 20
1.208333
 30
0.0
 11
-1.583333
 21
1.208333
 31
0.0
  0
LINE
  5
31C
100
AcDbEntity
  8
NONE
  6
CONTINUOUS
 62
     6
100
AcDbLine
 10
-1.583333
 20
1.208333
 30
0.0
 11
-1.583333
 21
1.180556
 31
0.0
  0
LINE
  5
31D
100
AcDbEntity
  8
NONE
  6
CONTINUOUS
 62
     6
100
AcDbLine
 10
-1.583333
 20
1.180556
 30
0.0
 11
-1.680556
 21
1.180556
 31
0.0
  0
LINE
  5
31E
100
AcDbEntity
  8
NONE
  6
CONTINUOUS
 62
     6
100
AcDbLine
 10
-1.861111
 20
1.611111
 30
0.0
 11
-1.666667
 21
1.611111
 31
0.0
  0
LINE
  5
31F
100
AcDbEntity
  8
NONE
  6
CONTINUOUS
 62
     6
100
AcDbLine
 10
-1.666667
 20
1.611111
 30
0.0
 11
-1.666667
 21
1.208333
 31
0.0
  0
LINE
  5
320
100
AcDbEntity
  8
NONE
  6
CONTINUOUS
 62
     6
100
AcDbLine
 10
-1.666667
 20
1.208333
 30
0.0
 11
-1.680556
 21
1.208333
 31
0.0
  0
LINE
  5
321
100
AcDbEntity
  8
NONE
  6
CONTINUOUS
 62
     6
100
AcDbLine
 10
-1.5
 20
1.708333
 30
0.0
 11
-1.416667
 21
1.611111
 31
0.0
  0
LINE
  5
322
100
AcDbEntity
  8
NONE
  6
CONTINUOUS
 62
     6
100
AcDbLine
 10
-1.527778
 20
1.708333
 30
0.0
 11
-1.444444
 21
1.611111
 31
0.0
  0
LINE
  5
323
100
AcDbEntity
  8
NONE
  6
CONTINUOUS
 62
     6
100
AcDbLine
 10
-1.666667
 20
1.708333
 30
0.0
 11
-1.527778
 21
1.569444
 31
0.0
  0
LINE
  5
324
100
AcDbEntity
  8
NONE
  6
CONTINUOUS
 62
     6
100
AcDbLine
 10
-1.694444
 20
1.708333
 30
0.0
 11
-1.569444
 21
1.569444
 31
0.0
  0
LINE
  5
325
100
AcDbEntity
  8
NONE
  6
CONTINUOUS
 62
     6
100
AcDbLine
 10
-1.791667
 20
1.708333
 30
0.0
 11
-1.708333
 21
1.611111
 31
0.0
  0
LINE
  5
326
100
AcDbEntity
  8
NONE
  6
CONTINUOUS
 62
     6
100
AcDbLine
 10
-1.833333
 20
1.708333
 30
0.0
 11
-1.75
 21
1.611111
 31
0.0
  0
LINE
  5
327
100
AcDbEntity
  8
NONE
  6
CONTINUOUS
 62
     6
100
AcDbLine
 10
-1.666667
 20
1.569444
 30
0.0
 11
-1.569444
 21
1.472222
 31
0.0
  0
LINE
  5
328
100
AcDbEntity
  8
NONE
  6
CONTINUOUS
 62
     6
100
AcDbLine
 10
-1.666667
 20
1.527778
 30
0.0
 11
-1.569444
 21
1.416667
 31
0.0
  0
LINE
  5
329
100
AcDbEntity
  8
NONE
  6
CONTINUOUS
 62
     6
100
AcDbLine
 10
-1.666667
 20
1.388889
 30
0.0
 11
-1.597222
 21
1.333333
 31
0.0
  0
LINE
  5
32A
100
AcDbEntity
  8
NONE
  6
CONTINUOUS
 62
     6
100
AcDbLine
 10
-1.666667
 20
1.347222
 30
0.0
 11
-1.597222
 21
1.291667
 31
0.0
  0
LINE
  5
32B
100
AcDbEntity
  8
NONE
  6
CONTINUOUS
 62
     6
100
AcDbLine
 10
-1.666667
 20
1.236111
 30
0.0
 11
-1.611111
 21
1.180556
 31
0.0
  0
LINE
  5
32C
100
AcDbEntity
  8
NONE
  6
CONTINUOUS
 62
     6
100
AcDbLine
 10
-1.583333
 20
1.180556
 30
0.0
 11
-1.583333
 21
-0.541667
 31
0.0
  0
LINE
  5
32D
100
AcDbEntity
  8
NONE
  6
CONTINUOUS
 62
     6
100
AcDbLine
 10
-1.583333
 20
-0.541667
 30
0.0
 11
-1.541667
 21
-0.541667
 31
0.0
  0
LINE
  5
32E
100
AcDbEntity
  8
NONE
  6
CONTINUOUS
 62
     6
100
AcDbLine
 10
-1.541667
 20
-0.541667
 30
0.0
 11
-1.541667
 21
-0.736111
 31
0.0
  0
TEXT
  5
32F
100
AcDbEntity
  8
NONE
 62
     7
100
AcDbText
 10
0.0
 20
0.0
 30
0.0
 40
0.133333
  1
masonry throat opening
 41
0.6
 72
     1
 11
-1.416667
 21
1.903333
 31
0.0
100
AcDbText
  0
TEXT
  5
330
100
AcDbEntity
  8
NONE
 62
     7
100
AcDbText
 10
0.0
 20
0.0
 30
0.0
 40
0.133333
  1
depth x average width
 41
0.6
 72
     1
 11
-1.416667
 21
1.681667
 31
0.0
100
AcDbText
  0
TEXT
  5
331
100
AcDbEntity
  8
NONE
 62
     7
100
AcDbText
 10
0.0
 20
0.0
 30
0.0
 40
0.133333
  1
(d x w in table)
 41
0.6
 72
     1
 11
-1.416667
 21
1.46
 31
0.0
100
AcDbText
  0
LINE
  5
332
100
AcDbEntity
  8
NONE
  6
CONTINUOUS
 62
     6
100
AcDbLine
 10
-1.472222
 20
1.861111
 30
0.0
 11
-2.402778
 21
1.236111
 31
0.0
  0
LINE
  5
333
100
AcDbEntity
  8
NONE
  6
CONTINUOUS
 62
     6
100
AcDbLine
 10
-2.125
 20
3.847222
 30
0.0
 11
-2.083333
 21
3.805556
 31
0.0
  0
LWPOLYLINE
  5
334
100
AcDbEntity
  8
NONE
  6
CONTINUOUS
 62
     6
100
AcDbPolyline
 90
        5
 70
   129
 10
-2.583333
 20
-0.736111
 10
-1.847222
 20
-0.736111
 10
-1.847222
 20
-0.847222
 10
-2.583333
 20
-0.847222
 10
-2.583333
 20
-0.736111
  0
LINE
  5
335
100
AcDbEntity
  8
NONE
  6
CONTINUOUS
 62
     8
100
AcDbLine
 10
-2.166667
 20
-0.736111
 30
0.0
 11
-1.986111
 21
-0.736111
 31
0.0
  0
LINE
  5
336
100
AcDbEntity
  8
NONE
  6
CONTINUOUS
 62
     8
100
AcDbLine
 10
-2.222222
 20
-0.666667
 30
0.0
 11
-2.222222
 21
-1.083333
 31
0.0
  0
LWPOLYLINE
  5
337
100
AcDbEntity
  8
NONE
  6
CONTINUOUS
 62
     8
100
AcDbPolyline
 90
        5
 70
   129
 10
-2.263889
 20
-0.666667
 42
-0.414214
 10
-2.222222
 20
-0.625
 42
-0.414214
 10
-2.180556
 20
-0.666667
 42
-0.414214
 10
-2.222222
 20
-0.708333
 42
-0.414214
 10
-2.263889
 20
-0.666667
 42
-0.414214
  0
LINE
  5
338
100
AcDbEntity
  8
NONE
  6
CONTINUOUS
 62
     8
100
AcDbLine
 10
-2.125
 20
-0.791667
 30
0.0
 11
-2.013889
 21
-0.680555
 31
0.0
  0
LWPOLYLINE
  5
339
100
AcDbEntity
  8
NONE
  6
CONTINUOUS
 62
     6
100
AcDbPolyline
 90
        5
 70
   129
 10
-1.861111
 20
-0.736111
 10
-1.013889
 20
-0.736111
 10
-1.013889
 20
-0.833333
 10
-1.861111
 20
-0.833333
 10
-1.861111
 20
-0.736111
  0
LINE
  5
33A
100
AcDbEntity
  8
NONE
  6
CONTINUOUS
 62
     6
100
AcDbLine
 10
-2.152778
 20
0.569445
 30
0.0
 11
-2.152778
 21
0.388889
 31
0.0
  0
LINE
  5
33B
100
AcDbEntity
  8
NONE
  6
CONTINUOUS
 62
     6
100
AcDbLine
 10
-3.0
 20
-0.833333
 30
0.0
 11
-3.222222
 21
-0.833333
 31
0.0
  0
LINE
  5
33C
100
AcDbEntity
  8
NONE
  6
CONTINUOUS
 62
     6
100
AcDbLine
 10
-3.0
 20
-1.0
 30
0.0
 11
-3.222222
 21
-1.0
 31
0.0
  0
LINE
  5
33D
100
AcDbEntity
  8
NONE
  6
CONTINUOUS
 62
     6
100
AcDbLine
 10
-1.333333
 20
-1.861111
 30
0.0
 11
-1.486111
 21
-1.972222
 31
0.0
  0
POLYLINE
  5
33E
100
AcDbEntity
  8
NONE
  6
CONTINUOUS
 62
     6
100
AcDb2dPolyline
 66
     1
 10
0.0
 20
0.0
 30
0.0
 40
0.014
 41
0.014
 75
     5
  0
VERTEX
  5
33F
100
AcDbEntity
  8
NONE
  6
CONTINUOUS
 62
     6
100
AcDbVertex
100
AcDb2dVertex
 10
-1.583333
 20
-2.055556
 30
0.0
  0
VERTEX
  5
340
100
AcDbEntity
  8
NONE
  6
CONTINUOUS
 62
     6
100
AcDbVertex
100
AcDb2dVertex
 10
-1.513889
 20
-1.944444
 30
0.0
  0
VERTEX
  5
341
100
AcDbEntity
  8
NONE
  6
CONTINUOUS
 62
     6
100
AcDbVertex
100
AcDb2dVertex
 10
-1.486111
 20
-1.972222
 30
0.0
  0
VERTEX
  5
342
100
AcDbEntity
  8
NONE
  6
CONTINUOUS
 62
     6
100
AcDbVertex
100
AcDb2dVertex
 10
-1.458333
 20
-2.0
 30
0.0
  0
VERTEX
  5
343
100
AcDbEntity
  8
NONE
  6
CONTINUOUS
 62
     6
100
AcDbVertex
100
AcDb2dVertex
 10
-1.583333
 20
-2.055556
 30
0.0
  0
SEQEND
  5
344
100
AcDbEntity
  8
NONE
  6
CONTINUOUS
  0
LINE
  5
345
100
AcDbEntity
  8
NONE
  6
CONTINUOUS
 62
     6
100
AcDbLine
 10
-1.430556
 20
-0.361111
 30
0.0
 11
-1.819444
 21
-0.611111
 31
0.0
  0
POLYLINE
  5
346
100
AcDbEntity
  8
NONE
  6
CONTINUOUS
 62
     6
100
AcDb2dPolyline
 66
     1
 10
0.0
 20
0.0
 30
0.0
 40
0.014
 41
0.014
 75
     5
  0
VERTEX
  5
347
100
AcDbEntity
  8
NONE
  6
CONTINUOUS
 62
     6
100
AcDbVertex
100
AcDb2dVertex
 10
-1.930556
 20
-0.680555
 30
0.0
  0
VERTEX
  5
348
100
AcDbEntity
  8
NONE
  6
CONTINUOUS
 62
     6
100
AcDbVertex
100
AcDb2dVertex
 10
-1.847222
 20
-0.569444
 30
0.0
  0
VERTEX
  5
349
100
AcDbEntity
  8
NONE
  6
CONTINUOUS
 62
     6
100
AcDbVertex
100
AcDb2dVertex
 10
-1.819444
 20
-0.611111
 30
0.0
  0
VERTEX
  5
34A
100
AcDbEntity
  8
NONE
  6
CONTINUOUS
 62
     6
100
AcDbVertex
100
AcDb2dVertex
 10
-1.791667
 20
-0.652778
 30
0.0
  0
VERTEX
  5
34B
100
AcDbEntity
  8
NONE
  6
CONTINUOUS
 62
     6
100
AcDbVertex
100
AcDb2dVertex
 10
-1.930556
 20
-0.680555
 30
0.0
  0
SEQEND
  5
34C
100
AcDbEntity
  8
NONE
  6
CONTINUOUS
  0
TEXT
  5
34D
100
AcDbEntity
  8
NONE
 62
     7
100
AcDbText
 10
-3.5
 20
-2.569444
 30
0.0
 40
0.155556
  1
Rumford Fireplaces by Superior Clay
 41
0.6
 11
-3.5
 21
-2.569444
 31
0.0
100
AcDbText
 73
     3
  0
TEXT
  5
34E
100
AcDbEntity
  8
NONE
 62
     7
100
AcDbText
 10
-3.458333
 20
-3.0
 30
0.0
 40
0.111111
  1
FIREPLACE^ITHROAT^IDAMPER   ^ISMOKE      FLUE     OTHER DIMENSIONS                                  throat
 41
0.6
100
AcDbText
  0
TEXT
  5
34F
100
AcDbEntity
  8
NONE
 62
     7
100
AcDbText
 10
-3.458333
 20
-3.138889
 30
0.0
 40
0.111111
  1
                                                  CHAMBER ^I    ^I         A     B       C        D         E        F       G       d x w
 41
0.6
100
AcDbText
  0
TEXT
  5
350
100
AcDbEntity
  8
NONE
 62
     7
100
AcDbText
 10
-3.458333
 20
-3.277778
 30
0.0
 40
0.111111
  1
    R3030^I        TS30^I    KW1730     ^ISC1212   ^I 12"x12" ^I30"  13.5"  13.5"    16"    27-32"  13.5"   21"   3.5"x16"
 41
0.6
100
AcDbText
  0
TEXT
  5
351
100
AcDbEntity
  8
NONE
 62
     7
100
AcDbText
 10
-3.458333
 20
-3.416667
 30
0.0
 40
0.111111
  1
    R3636^I        TS36^I      AR24  ^I     SC1313^I    13"x13"^I 36"   14"    13.5"    18"    27-36"  13.5"   30"    4"x17"
 41
0.6
100
AcDbText
  0
TEXT
  5
352
100
AcDbEntity
  8
NONE
 62
     7
100
AcDbText
 10
-3.458333
 20
-3.555556
 30
0.0
 40
0.111111
  1
    R4242^I        TS42^I      AR30  ^I     SC1318^I    13"x18"^I 42"   15"     15"      21"    38-42"  13.5"   30"  4.5"x20"
 41
0.6
100
AcDbText
  0
TEXT
  5
353
100
AcDbEntity
  8
NONE
 62
     7
100
AcDbText
 10
-3.458333
 20
-3.694444
 30
0.0
 40
0.111111
  1
    R4848^I        TS48^I      AR30  ^I     SC1620^I    16"x20"^I 48"   16"     18"     22.5"  42-48"  13.5"   30"    5"x23"
 41
0.6
100
AcDbText
  0
TEXT
  5
354
100
AcDbEntity
  8
NONE
 62
     7
100
AcDbText
 10
-3.458333
 20
-3.833333
 30
0.0
 40
0.111111
  1
    R6054^I        TS60^I   42" Vestal^I    SC2020^I    20"x20"^I 60"   20"    22.5"    27"    48-54"  13.5"   32"   10"x27"
 41
0.6
100
AcDbText
  0
TEXT
  5
355
100
AcDbEntity
  8
NONE
 62
     7
100
AcDbText
 10
-3.458333
 20
-3.972222
 30
0.0
 40
0.111111
  1
    R7254^I        TS72^I   48" Vestal^I    SC2424^I    24"x24"^I 72"   24"      27"    31.5"  54-60"  13.5"   39"   10"x35"
 41
0.6
100
AcDbText
  0
LWPOLYLINE
  5
356
100
AcDbEntity
  8
NONE
  6
CONTINUOUS
 62
     6
100
AcDbPolyline
 90
        5
 70
   129
 10
-3.513889
 20
-2.819444
 10
3.138889
 20
-2.819444
 10
3.138889
 20
-4.208333
 10
-3.513889
 20
-4.208333
 10
-3.513889
 20
-2.819444
  0
LINE
  5
357
100
AcDbEntity
  8
NONE
  6
CONTINUOUS
 62
     6
100
AcDbLine
 10
-3.5
 20
-3.180556
 30
0.0
 11
3.125
 21
-3.180556
 31
0.0
  0
LINE
  5
358
100
AcDbEntity
  8
NONE
  6
CONTINUOUS
 62
     6
100
AcDbLine
 10
-0.680555
 20
-2.847222
 30
0.0
 11
-0.680555
 21
-4.194444
 31
0.0
  0
LINE
  5
359
100
AcDbEntity
  8
NONE
  6
CONTINUOUS
 62
     6
100
AcDbLine
 10
-0.138889
 20
-2.819444
 30
0.0
 11
-0.138889
 21
-4.194444
 31
0.0
  0
LINE
  5
35A
100
AcDbEntity
  8
NONE
  6
CONTINUOUS
 62
     6
100
AcDbLine
 10
-1.458333
 20
-2.819444
 30
0.0
 11
-1.458333
 21
-4.194444
 31
0.0
  0
LINE
  5
35B
100
AcDbEntity
  8
NONE
  6
CONTINUOUS
 62
     6
100
AcDbLine
 10
-2.111111
 20
-2.819444
 30
0.0
 11
-2.111111
 21
-4.194444
 31
0.0
  0
LINE
  5
35C
100
AcDbEntity
  8
NONE
  6
CONTINUOUS
 62
     6
100
AcDbLine
 10
-2.694444
 20
-2.819444
 30
0.0
 11
-2.694444
 21
-4.194444
 31
0.0
  0
LINE
  5
35D
100
AcDbEntity
  8
NONE
  6
CONTINUOUS
 62
     6
100
AcDbLine
 10
3.75
 20
-2.472222
 30
0.0
 11
3.75
 21
-2.472222
 31
0.0
  0
ENDSEC
  0
SECTION
  2
OBJECTS
  0
DICTIONARY
  5
19
100
AcDbDictionary
  3
ACAD_GROUP
350
1A
  3
ACAD_MLINESTYLE
350
1B
  0
DICTIONARY
  5
1A
102
{ACAD_REACTORS
330
19
102
}
100
AcDbDictionary
  0
DICTIONARY
  5
1B
102
{ACAD_REACTORS
330
19
102
}
100
AcDbDictionary
  3
STANDARD
350
1C
  0
MLINESTYLE
  5
1C
102
{ACAD_REACTORS
330
1B
102
}
100
AcDbMlineStyle
  2
STANDARD
 70
     0
  3

 62
     0
 51
90.0
 52
90.0
 71
     2
 49
0.5
 62
   256
  6
BYLAYER
 49
-0.5
 62
   256
  6
BYLAYER
  0
ENDSEC
  0
EOF
