  0
SECTION
  2
HEADER
  9
$ACADVER
  1
AC1014
  9
$ACADMAINTVER
 70
     0
  9
$DWGCODEPAGE
  3
ANSI_1252
  9
$INSBASE
 10
0.0
 20
0.0
 30
0.0
  9
$EXTMIN
 10
-4.215278
 20
-5.5
 30
0.0
  9
$EXTMAX
 10
4.215278
 20
5.5
 30
0.0
  9
$LIMMIN
 10
0.0
 20
0.0
  9
$LIMMAX
 10
0.0
 20
0.0
  9
$ORTHOMODE
 70
     0
  9
$REGENMODE
 70
     1
  9
$FILLMODE
 70
     1
  9
$QTEXTMODE
 70
     0
  9
$MIRRTEXT
 70
     1
  9
$DRAGMODE
 70
     2
  9
$LTSCALE
 40
1.0
  9
$OSMODE
 70
     0
  9
$ATTMODE
 70
     1
  9
$TEXTSIZE
 40
0.2
  9
$TRACEWID
 40
0.05
  9
$TEXTSTYLE
  7
STANDARD
  9
$CLAYER
  8
0
  9
$CELTYPE
  6
CONTINUOUS
  9
$CECOLOR
 62
   256
  9
$CELTSCALE
 40
1.0
  9
$DELOBJ
 70
     1
  9
$DISPSILH
 70
     0
  9
$DIMSCALE
 40
1.0
  9
$DIMASZ
 40
0.18
  9
$DIMEXO
 40
0.0625
  9
$DIMDLI
 40
0.38
  9
$DIMRND
 40
0.0
  9
$DIMDLE
 40
0.0
  9
$DIMEXE
 40
0.18
  9
$DIMTP
 40
0.0
  9
$DIMTM
 40
0.0
  9
$DIMTXT
 40
0.18
  9
$DIMCEN
 40
0.09
  9
$DIMTSZ
 40
0.0
  9
$DIMTOL
 70
     0
  9
$DIMLIM
 70
     0
  9
$DIMTIH
 70
     1
  9
$DIMTOH
 70
     1
  9
$DIMSE1
 70
     0
  9
$DIMSE2
 70
     0
  9
$DIMTAD
 70
     0
  9
$DIMZIN
 70
     0
  9
$DIMBLK
  1

  9
$DIMASO
 70
     1
  9
$DIMSHO
 70
     1
  9
$DIMPOST
  1

  9
$DIMAPOST
  1

  9
$DIMALT
 70
     0
  9
$DIMALTD
 70
     2
  9
$DIMALTF
 40
25.4
  9
$DIMLFAC
 40
1.0
  9
$DIMTOFL
 70
     0
  9
$DIMTVP
 40
0.0
  9
$DIMTIX
 70
     0
  9
$DIMSOXD
 70
     0
  9
$DIMSAH
 70
     0
  9
$DIMBLK1
  1

  9
$DIMBLK2
  1

  9
$DIMSTYLE
  2
STANDARD
  9
$DIMCLRD
 70
     0
  9
$DIMCLRE
 70
     0
  9
$DIMCLRT
 70
     0
  9
$DIMTFAC
 40
1.0
  9
$DIMGAP
 40
0.09
  9
$DIMJUST
 70
     0
  9
$DIMSD1
 70
     0
  9
$DIMSD2
 70
     0
  9
$DIMTOLJ
 70
     1
  9
$DIMTZIN
 70
     0
  9
$DIMALTZ
 70
     0
  9
$DIMALTTZ
 70
     0
  9
$DIMFIT
 70
     3
  9
$DIMUPT
 70
     0
  9
$DIMUNIT
 70
     2
  9
$DIMDEC
 70
     4
  9
$DIMTDEC
 70
     4
  9
$DIMALTU
 70
     2
  9
$DIMALTTD
 70
     2
  9
$DIMTXSTY
  7
STANDARD
  9
$DIMAUNIT
 70
     0
  9
$LUNITS
 70
     3
  9
$LUPREC
 70
     4
  9
$SKETCHINC
 40
0.1
  9
$FILLETRAD
 40
0.0
  9
$AUNITS
 70
     0
  9
$AUPREC
 70
     0
  9
$MENU
  1
acad
  9
$ELEVATION
 40
0.0
  9
$PELEVATION
 40
0.0
  9
$THICKNESS
 40
0.0
  9
$LIMCHECK
 70
     0
  9
$BLIPMODE
 70
     1
  9
$CHAMFERA
 40
0.0
  9
$CHAMFERB
 40
0.0
  9
$CHAMFERC
 40
0.0
  9
$CHAMFERD
 40
0.0
  9
$SKPOLY
 70
     0
  9
$TDCREATE
 40
2451681.462511574
  9
$TDUPDATE
 40
2451681.462511574
  9
$TDINDWG
 40
0.0000000000
  9
$TDUSRTIMER
 40
0.0000000000
  9
$USRTIMER
 70
     1
  9
$ANGBASE
 50
0.0
  9
$ANGDIR
 70
     0
  9
$PDMODE
 70
     0
  9
$PDSIZE
 40
0.0
  9
$PLINEWID
 40
0.0
  9
$COORDS
 70
     0
  9
$SPLFRAME
 70
     0
  9
$SPLINETYPE
 70
     6
  9
$SPLINESEGS
 70
     8
  9
$ATTDIA
 70
     0
  9
$ATTREQ
 70
     1
  9
$HANDLING
 70
     1
  9
$HANDSEED
  5
274
  9
$SURFTAB1
 70
     6
  9
$SURFTAB2
 70
     6
  9
$SURFTYPE
 70
     6
  9
$SURFU
 70
     6
  9
$SURFV
 70
     6
  9
$UCSNAME
  2

  9
$UCSORG
 10
0.0
 20
0.0
 30
0.0
  9
$UCSXDIR
 10
1.0
 20
0.0
 30
0.0
  9
$UCSYDIR
 10
0.0
 20
1.0
 30
0.0
  9
$PUCSNAME
  2

  9
$PUCSORG
 10
0.0
 20
0.0
 30
0.0
  9
$PUCSXDIR
 10
1.0
 20
0.0
 30
0.0
  9
$PUCSYDIR
 10
0.0
 20
1.0
 30
0.0
  9
$USERI1
 70
     0
  9
$USERI2
 70
     0
  9
$USERI3
 70
     0
  9
$USERI4
 70
     0
  9
$USERI5
 70
     0
  9
$USERR1
 40
0.0
  9
$USERR2
 40
0.0
  9
$USERR3
 40
0.0
  9
$USERR4
 40
0.0
  9
$USERR5
 40
0.0
  9
$WORLDVIEW
 70
     1
  9
$SHADEDGE
 70
     3
  9
$SHADEDIF
 70
    70
  9
$TILEMODE
 70
     1
  9
$MAXACTVP
 70
    16
  9
$PINSBASE
 10
0.0
 20
0.0
 30
0.0
  9
$PLIMCHECK
 70
     0
  9
$PEXTMIN
 10
1.000000E+20
 20
1.000000E+20
 30
1.000000E+20
  9
$PEXTMAX
 10
-1.000000E+20
 20
-1.000000E+20
 30
-1.000000E+20
  9
$PLIMMIN
 10
0.0
 20
0.0
  9
$PLIMMAX
 10
12.0
 20
9.0
  9
$UNITMODE
 70
     0
  9
$VISRETAIN
 70
     0
  9
$PLINEGEN
 70
     1
  9
$PSLTSCALE
 70
     0
  9
$TREEDEPTH
 70
  3020
  9
$PICKSTYLE
 70
     1
  9
$CMLSTYLE
  2
STANDARD
  9
$CMLJUST
 70
     0
  9
$CMLSCALE
 40
1.0
  9
$PROXYGRAPHICS
 70
     0
  9
$MEASUREMENT
 70
     0
  0
ENDSEC
  0
SECTION
  2
CLASSES
  0
CLASS
  1
LWPOLYLINE
  2
AcDbPolyline
  3
"AutoCAD"
 90
        0
280
     0
281
     1
  0
CLASS
  1
IMAGE
  2
AcDbRasterImage
  3
ISM
 90
      127
280
     0
281
     1
  0
CLASS
  1
OLE2FRAME
  2
AcDbOle2Frame
  3
""
 90
        0
280
     0
281
     1
  0
CLASS
  1
HATCH
  2
AcDbHatch
  3
"ACAD_SEDONA"
 90
        0
280
     0
281
     1
  0
CLASS
  1
DICTIONARYVAR
  2
AcDbDictionaryVar
  3
"AutoCAD"
 90
        0
280
     0
281
     0
  0
CLASS
  1
RASTERVARIABLES
  2
AcDbRasterVariables
  3
ISM
 90
        0
280
     0
281
     0
  0
CLASS
  1
IMAGEDEF
  2
AcDbRasterImageDef
  3
ISM
 90
        0
280
     0
281
     0
  0
CLASS
  1
IMAGEDEF_REACTOR
  2
AcDbRasterImageDefReactor
  3
ISM
 90
        1
280
     0
281
     0
  0
CLASS
  1
IDBUFFER
  2
AcDbIdBuffer
  3
"Acad"
 90
        0
280
     0
281
     0
  0
CLASS
  1
SPATIAL_FILTER
  2
AcDbSpatialFilter
  3
"Acad"
 90
        0
280
     0
281
     0
  0
CLASS
  1
XRECORD
  2
AcDbXrecord
  3
"<Built In>"
 90
        0
280
     0
281
     0
  0
CLASS
  1
SORTENTSTABLE
  2
AcDbSortentsTable
  3
"AutoCAD"
 90
        0
280
     0
281
     0
  0
CLASS
  1
LAYER_INDEX
  2
AcDbLayerIndex
  3
"Acad"
 90
        0
280
     0
281
     0
  0
CLASS
  1
SPATIAL_INDEX
  2
AcDbSpatialIndex
  3
"Acad"
 90
        0
280
     0
281
     0
  0
CLASS
  1
OBJECT_PTR
  2
CAseDLPNTableRecord
  3
"ASE-LPNTableRecord"
 90
        1
280
     0
281
     0
  0
ENDSEC
  0
SECTION
  2
TABLES
  0
TABLE
  2
VPORT
  5
7
100
AcDbSymbolTable
 70
     1
  0
VPORT
  5
15
100
AcDbSymbolTableRecord
100
AcDbViewportTableRecord
  2
*ACTIVE
 70
     0
 10
0.0
 20
0.0
 11
1.0
 21
1.0
 12
0.0
 22
0.0
 13
0.0
 23
0.0
 14
1.0
 24
1.0
 15
0.0
 25
0.0
 16
0.0
 26
0.0
 36
1.0
 17
0.0
 27
0.0
 37
0.0
 40
11.0
 41
0.688564
 42
50.0
 43
0.0
 44
0.0
 50
0.0
 51
0.0
 71
     0
 72
   100
 73
     1
 74
     1
 75
     0
 76
     0
 77
     0
 78
     0
  0
ENDTAB
  0
TABLE
  2
LTYPE
  5
4
100
AcDbSymbolTable
 70
    13
  0
LTYPE
  5
11
100
AcDbSymbolTableRecord
100
AcDbLinetypeTableRecord
  2
BYBLOCK
 70
     0
  3

 72
    65
 73
     0
 40
0.0
  0
LTYPE
  5
12
100
AcDbSymbolTableRecord
100
AcDbLinetypeTableRecord
  2
BYLAYER
 70
     0
  3

 72
    65
 73
     0
 40
0.0
  0
LTYPE
  5
13
100
AcDbSymbolTableRecord
100
AcDbLinetypeTableRecord
  2
CONTINUOUS
 70
     0
  3
Solid line
 72
    65
 73
     0
 40
0.0
  0
LTYPE
  5
1D
100
AcDbSymbolTableRecord
100
AcDbLinetypeTableRecord
  2
VECTORWORKS_DASH_01
 70
     0
  3
(unavailable)
 72
    65
 73
     2
 40
0.083328
 49
0.041656
 74
     0
 49
-0.041672
 74
     0
  0
LTYPE
  5
1E
100
AcDbSymbolTableRecord
100
AcDbLinetypeTableRecord
  2
VECTORWORKS_DASH_02
 70
     0
  3
(unavailable)
 72
    65
 73
     2
 40
0.138885
 49
0.097214
 74
     0
 49
-0.041672
 74
     0
  0
LTYPE
  5
1F
100
AcDbSymbolTableRecord
100
AcDbLinetypeTableRecord
  2
VECTORWORKS_DASH_03
 70
     0
  3
(unavailable)
 72
    65
 73
     2
 40
0.25
 49
0.208328
 74
     0
 49
-0.041672
 74
     0
  0
LTYPE
  5
20
100
AcDbSymbolTableRecord
100
AcDbLinetypeTableRecord
  2
VECTORWORKS_DASH_04
 70
     0
  3
(unavailable)
 72
    65
 73
     2
 40
0.305542
 49
0.263885
 74
     0
 49
-0.041656
 74
     0
  0
LTYPE
  5
21
100
AcDbSymbolTableRecord
100
AcDbLinetypeTableRecord
  2
VECTORWORKS_DASH_05
 70
     0
  3
(unavailable)
 72
    65
 73
     2
 40
0.041656
 49
0.013885
 74
     0
 49
-0.027771
 74
     0
  0
LTYPE
  5
22
100
AcDbSymbolTableRecord
100
AcDbLinetypeTableRecord
  2
VECTORWORKS_DASH_06
 70
     0
  3
(unavailable)
 72
    65
 73
     4
 40
0.208328
 49
0.125
 74
     0
 49
-0.041656
 74
     0
 49
0.013885
 74
     0
 49
-0.027786
 74
     0
  0
LTYPE
  5
23
100
AcDbSymbolTableRecord
100
AcDbLinetypeTableRecord
  2
VECTORWORKS_DASH_07
 70
     0
  3
(unavailable)
 72
    65
 73
     6
 40
0.375
 49
0.125
 74
     0
 49
-0.041656
 74
     0
 49
0.125
 74
     0
 49
-0.041672
 74
     0
 49
0.013885
 74
     0
 49
-0.027786
 74
     0
  0
LTYPE
  5
24
100
AcDbSymbolTableRecord
100
AcDbLinetypeTableRecord
  2
VECTORWORKS_DASH_08
 70
     0
  3
(unavailable)
 72
    65
 73
     6
 40
0.25
 49
0.125
 74
     0
 49
-0.041656
 74
     0
 49
0.013885
 74
     0
 49
-0.027786
 74
     0
 49
0.013885
 74
     0
 49
-0.027786
 74
     0
  0
LTYPE
  5
25
100
AcDbSymbolTableRecord
100
AcDbLinetypeTableRecord
  2
VECTORWORKS_DASH_09
 70
     0
  3
(unavailable)
 72
    65
 73
     4
 40
1.0
 49
0.75
 74
     0
 49
-0.055557
 74
     0
 49
0.138885
 74
     0
 49
-0.055557
 74
     0
  0
LTYPE
  5
26
100
AcDbSymbolTableRecord
100
AcDbLinetypeTableRecord
  2
VECTORWORKS_DASH_10
 70
     0
  3
(unavailable)
 72
    65
 73
     6
 40
1.1875
 49
0.75
 74
     0
 49
-0.055557
 74
     0
 49
0.138885
 74
     0
 49
-0.055557
 74
     0
 49
0.125
 74
     0
 49
-0.0625
 74
     0
  0
ENDTAB
  0
TABLE
  2
LAYER
  5
2
100
AcDbSymbolTable
 70
     3
  0
LAYER
  5
14
100
AcDbSymbolTableRecord
100
AcDbLayerTableRecord
  2
0
 70
     0
 62
     7
  6
CONTINUOUS
  0
LAYER
  5
27
100
AcDbSymbolTableRecord
100
AcDbLayerTableRecord
  2
NONE
 70
    64
 62
     7
  6
CONTINUOUS
  0
LAYER
  5
28
100
AcDbSymbolTableRecord
100
AcDbLayerTableRecord
  2
DIMENSION
 70
    64
 62
     7
  6
CONTINUOUS
  0
ENDTAB
  0
TABLE
  2
STYLE
  5
3
100
AcDbSymbolTable
 70
     1
  0
STYLE
  5
17
100
AcDbSymbolTableRecord
100
AcDbTextStyleTableRecord
  2
STANDARD
 70
     0
 40
0.0
 41
1.0
 50
0.0
 71
     0
 42
0.0
  3
txt
  4

  0
ENDTAB
  0
TABLE
  2
VIEW
  5
5
100
AcDbSymbolTable
 70
     0
  0
ENDTAB
  0
TABLE
  2
UCS
  5
6
100
AcDbSymbolTable
 70
     0
  0
ENDTAB
  0
TABLE
  2
APPID
  5
8
100
AcDbSymbolTable
 70
     1
  0
APPID
  5
16
100
AcDbSymbolTableRecord
100
AcDbRegAppTableRecord
  2
ACAD
 70
     0
  0
ENDTAB
  0
TABLE
  2
DIMSTYLE
  5
9
100
AcDbSymbolTable
 70
     1
  0
DIMSTYLE
105
18
100
AcDbSymbolTableRecord
100
AcDbDimStyleTableRecord
  2
STANDARD
 70
     0
  3

  4

  5

  6

  7

 40
1.0
 41
0.18
 42
0.0625
 43
0.38
 44
0.18
 45
0.0
 46
0.0
 47
0.0
 48
0.0
140
0.18
141
0.09
142
0.0
143
25.4
144
1.0
145
0.0
146
1.0
147
0.09
 71
     0
 72
     0
 73
     1
 74
     1
 75
     0
 76
     0
 77
     0
 78
     0
170
     0
171
     2
172
     0
173
     0
174
     0
175
     0
176
     0
177
     0
178
     0
270
     2
271
     4
272
     4
273
     2
274
     2
340
17
275
     0
280
     0
281
     0
282
     0
283
     1
284
     0
285
     0
286
     0
287
     0
288
     0
  0
ENDTAB
  0
TABLE
  2
BLOCK_RECORD
  5
1
100
AcDbSymbolTable
 70
     3
  0
BLOCK_RECORD
  5
A
100
AcDbSymbolTableRecord
100
AcDbBlockTableRecord
  2
*MODEL_SPACE
  0
BLOCK_RECORD
  5
B
100
AcDbSymbolTableRecord
100
AcDbBlockTableRecord
  2
*PAPER_SPACE
  0
BLOCK_RECORD
  5
2B
100
AcDbSymbolTableRecord
100
AcDbBlockTableRecord
  2
*G0
  0
BLOCK_RECORD
  5
2A
100
AcDbSymbolTableRecord
100
AcDbBlockTableRecord
  2
*G1
  0
BLOCK_RECORD
  5
29
100
AcDbSymbolTableRecord
100
AcDbBlockTableRecord
  2
*G2
  0
ENDTAB
  0
ENDSEC
  0
SECTION
  2
BLOCKS
  0
BLOCK
  5
D
100
AcDbEntity
  8
0
100
AcDbBlockBegin
  2
*MODEL_SPACE
 70
     0
 10
0.0
 20
0.0
 30
0.0
  3
*MODEL_SPACE
  1

  0
ENDBLK
  5
E
100
AcDbEntity
  8
0
100
AcDbBlockEnd
  0
BLOCK
  5
F
100
AcDbEntity
 67
     1
  8
0
100
AcDbBlockBegin
  2
*PAPER_SPACE
 70
     0
 10
0.0
 20
0.0
 30
0.0
  3
*PAPER_SPACE
  1

  0
ENDBLK
  5
10
100
AcDbEntity
 67
     1
  8
0
100
AcDbBlockEnd
  0
BLOCK
  5
2C
100
AcDbEntity
  8
NONE
100
AcDbBlockBegin
  2
*G0
 70
     1
 10
0.0
 20
0.0
 30
0.0
  3

  1

  0
LWPOLYLINE
  5
2D
100
AcDbEntity
  8
NONE
  6
CONTINUOUS
 62
     6
100
AcDbPolyline
 90
        5
 70
   129
 10
-2.319444
 20
5.375
 10
-1.472222
 20
5.375
 10
-1.472222
 20
4.361111
 10
-2.319444
 20
4.361111
 10
-2.319444
 20
5.375
  0
LWPOLYLINE
  5
2E
100
AcDbEntity
  8
NONE
  6
CONTINUOUS
 62
     6
100
AcDbPolyline
 90
        5
 70
   129
 10
-2.263889
 20
5.375
 10
-1.527778
 20
5.375
 10
-1.527778
 20
4.361111
 10
-2.263889
 20
4.361111
 10
-2.263889
 20
5.375
  0
ENDBLK
  5
2F
100
AcDbEntity
  8
NONE
100
AcDbBlockEnd
  0
BLOCK
  5
30
100
AcDbEntity
  8
NONE
100
AcDbBlockBegin
  2
*G1
 70
     1
 10
0.0
 20
0.0
 30
0.0
  3

  1

  0
POLYLINE
  5
31
100
AcDbEntity
  8
NONE
  6
CONTINUOUS
 62
     6
100
AcDb2dPolyline
 66
     1
 10
0.0
 20
0.0
 30
0.0
 40
0.014
 41
0.014
 75
     5
  0
VERTEX
  5
32
100
AcDbEntity
  8
NONE
  6
CONTINUOUS
 62
     6
100
AcDbVertex
100
AcDb2dVertex
 10
-2.069444
 20
1.069444
 30
0.0
  0
VERTEX
  5
33
100
AcDbEntity
  8
NONE
  6
CONTINUOUS
 62
     6
100
AcDbVertex
100
AcDb2dVertex
 10
-1.652778
 20
1.069444
 30
0.0
  0
VERTEX
  5
34
100
AcDbEntity
  8
NONE
  6
CONTINUOUS
 62
     6
100
AcDbVertex
100
AcDb2dVertex
 10
-1.861111
 20
1.319444
 30
0.0
  0
VERTEX
  5
35
100
AcDbEntity
  8
NONE
  6
CONTINUOUS
 62
     6
100
AcDbVertex
100
AcDb2dVertex
 10
-2.041667
 20
1.069444
 30
0.0
  0
VERTEX
  5
36
100
AcDbEntity
  8
NONE
  6
CONTINUOUS
 62
     6
100
AcDbVertex
100
AcDb2dVertex
 10
-2.041667
 20
1.069444
 30
0.0
  0
VERTEX
  5
37
100
AcDbEntity
  8
NONE
  6
CONTINUOUS
 62
     6
100
AcDbVertex
100
AcDb2dVertex
 10
-2.069444
 20
1.069444
 30
0.0
  0
SEQEND
  5
38
100
AcDbEntity
  8
NONE
  6
CONTINUOUS
  0
LINE
  5
39
100
AcDbEntity
  8
NONE
  6
CONTINUOUS
 62
     8
100
AcDbLine
 10
-2.069444
 20
1.069444
 30
0.0
 11
-2.208333
 21
1.333333
 31
0.0
  0
LINE
  5
3A
100
AcDbEntity
  8
NONE
  6
CONTINUOUS
 62
     8
100
AcDbLine
 10
-2.125
 20
1.041667
 30
0.0
 11
-1.569444
 21
1.041667
 31
0.0
  0
ENDBLK
  5
3B
100
AcDbEntity
  8
NONE
100
AcDbBlockEnd
  0
BLOCK
  5
3C
100
AcDbEntity
  8
NONE
100
AcDbBlockBegin
  2
*G2
 70
     1
 10
0.0
 20
0.0
 30
0.0
  3

  1

  0
LWPOLYLINE
  5
3D
100
AcDbEntity
  8
NONE
  6
CONTINUOUS
 62
     6
100
AcDbPolyline
 90
        5
 70
   129
 10
-2.319444
 20
3.319444
 10
-1.472222
 20
3.319444
 10
-1.472222
 20
2.305556
 10
-2.319444
 20
2.305556
 10
-2.319444
 20
3.319444
  0
LWPOLYLINE
  5
3E
100
AcDbEntity
  8
NONE
  6
CONTINUOUS
 62
     6
100
AcDbPolyline
 90
        5
 70
   129
 10
-2.263889
 20
3.319444
 10
-1.527778
 20
3.319444
 10
-1.527778
 20
2.305556
 10
-2.263889
 20
2.305556
 10
-2.263889
 20
3.319444
  0
ENDBLK
  5
3F
100
AcDbEntity
  8
NONE
100
AcDbBlockEnd
  0
ENDSEC
  0
SECTION
  2
ENTITIES
  0
TEXT
  5
40
100
AcDbEntity
  8
NONE
 62
     7
100
AcDbText
 10
-3.597222
 20
-5.333333
 30
0.0
 40
0.133333
  1
Internet: 
 41
0.6
100
AcDbText
  0
TEXT
  5
41
100
AcDbEntity
  8
NONE
 62
     7
100
AcDbText
 10
-3.597222
 20
-5.5
 30
0.0
 40
0.133333
  1
http://www.rumford.com
 41
0.6
100
AcDbText
  0
LWPOLYLINE
  5
42
100
AcDbEntity
  8
NONE
  6
CONTINUOUS
 62
     6
100
AcDbPolyline
 90
        5
 70
   129
 10
0.458333
 20
-2.902778
 10
3.958333
 20
-2.902778
 10
3.958333
 20
-4.402778
 10
0.458333
 20
-4.402778
 10
0.458333
 20
-2.902778
  0
POLYLINE
  5
43
100
AcDbEntity
  8
NONE
  6
CONTINUOUS
 62
     6
100
AcDb2dPolyline
 66
     1
 10
0.0
 20
0.0
 30
0.0
 40
0.014
 41
0.014
 75
     5
  0
VERTEX
  5
44
100
AcDbEntity
  8
NONE
  6
CONTINUOUS
 62
     6
100
AcDbVertex
100
AcDb2dVertex
 10
0.930555
 20
-4.222222
 30
0.0
  0
VERTEX
  5
45
100
AcDbEntity
  8
NONE
  6
CONTINUOUS
 62
     6
100
AcDbVertex
100
AcDb2dVertex
 10
1.694444
 20
-3.416667
 30
0.0
  0
VERTEX
  5
46
100
AcDbEntity
  8
NONE
  6
CONTINUOUS
 62
     6
100
AcDbVertex
100
AcDb2dVertex
 10
2.652778
 20
-3.416667
 30
0.0
  0
VERTEX
  5
47
100
AcDbEntity
  8
NONE
  6
CONTINUOUS
 62
     6
100
AcDbVertex
100
AcDb2dVertex
 10
3.430556
 20
-4.222222
 30
0.0
  0
VERTEX
  5
48
100
AcDbEntity
  8
NONE
  6
CONTINUOUS
 62
     6
100
AcDbVertex
100
AcDb2dVertex
 10
3.430556
 20
-4.222222
 30
0.0
  0
VERTEX
  5
49
100
AcDbEntity
  8
NONE
  6
CONTINUOUS
 62
     6
100
AcDbVertex
100
AcDb2dVertex
 10
0.930555
 20
-4.222222
 30
0.0
  0
SEQEND
  5
4A
100
AcDbEntity
  8
NONE
  6
CONTINUOUS
  0
POLYLINE
  5
4B
100
AcDbEntity
  8
NONE
  6
CONTINUOUS
 62
     6
100
AcDb2dPolyline
 66
     1
 10
0.0
 20
0.0
 30
0.0
 40
0.014
 41
0.014
 75
     5
  0
VERTEX
  5
4C
100
AcDbEntity
  8
NONE
  6
CONTINUOUS
 62
     6
100
AcDbVertex
100
AcDb2dVertex
 10
0.458333
 20
-4.388889
 30
0.0
  0
VERTEX
  5
4D
100
AcDbEntity
  8
NONE
  6
CONTINUOUS
 62
     6
100
AcDbVertex
100
AcDb2dVertex
 10
0.458333
 20
-5.25
 30
0.0
  0
VERTEX
  5
4E
100
AcDbEntity
  8
NONE
  6
CONTINUOUS
 62
     6
100
AcDbVertex
100
AcDb2dVertex
 10
3.944444
 20
-5.25
 30
0.0
  0
VERTEX
  5
4F
100
AcDbEntity
  8
NONE
  6
CONTINUOUS
 62
     6
100
AcDbVertex
100
AcDb2dVertex
 10
3.944444
 20
-4.388889
 30
0.0
  0
VERTEX
  5
50
100
AcDbEntity
  8
NONE
  6
CONTINUOUS
 62
     6
100
AcDbVertex
100
AcDb2dVertex
 10
3.430556
 20
-4.388889
 30
0.0
  0
VERTEX
  5
51
100
AcDbEntity
  8
NONE
  6
CONTINUOUS
 62
     6
100
AcDbVertex
100
AcDb2dVertex
 10
3.430556
 20
-4.222222
 30
0.0
  0
VERTEX
  5
52
100
AcDbEntity
  8
NONE
  6
CONTINUOUS
 62
     6
100
AcDbVertex
100
AcDb2dVertex
 10
0.930555
 20
-4.222222
 30
0.0
  0
VERTEX
  5
53
100
AcDbEntity
  8
NONE
  6
CONTINUOUS
 62
     6
100
AcDbVertex
100
AcDb2dVertex
 10
0.930555
 20
-4.388889
 30
0.0
  0
VERTEX
  5
54
100
AcDbEntity
  8
NONE
  6
CONTINUOUS
 62
     6
100
AcDbVertex
100
AcDb2dVertex
 10
0.930555
 20
-4.388889
 30
0.0
  0
VERTEX
  5
55
100
AcDbEntity
  8
NONE
  6
CONTINUOUS
 62
     6
100
AcDbVertex
100
AcDb2dVertex
 10
0.458333
 20
-4.388889
 30
0.0
  0
SEQEND
  5
56
100
AcDbEntity
  8
NONE
  6
CONTINUOUS
  0
LWPOLYLINE
  5
57
100
AcDbEntity
  8
NONE
  6
CONTINUOUS
 62
     6
100
AcDbPolyline
 90
        5
 70
   129
 10
1.708333
 20
-3.305556
 10
2.666667
 20
-3.305556
 10
2.666667
 20
-3.430556
 10
1.708333
 20
-3.430556
 10
1.708333
 20
-3.305556
  0
POLYLINE
  5
58
100
AcDbEntity
  8
NONE
  6
CONTINUOUS
 62
     6
100
AcDb2dPolyline
 66
     1
 10
0.0
 20
0.0
 30
0.0
 40
0.014
 41
0.014
 75
     5
  0
VERTEX
  5
59
100
AcDbEntity
  8
NONE
  6
CONTINUOUS
 62
     6
100
AcDbVertex
100
AcDb2dVertex
 10
-1.402778
 20
4.722222
 30
0.0
  0
VERTEX
  5
5A
100
AcDbEntity
  8
NONE
  6
CONTINUOUS
 62
     6
100
AcDbVertex
100
AcDb2dVertex
 10
-1.402778
 20
1.027778
 30
0.0
  0
VERTEX
  5
5B
100
AcDbEntity
  8
NONE
  6
CONTINUOUS
 62
     6
100
AcDbVertex
100
AcDb2dVertex
 10
-1.236111
 20
1.027778
 30
0.0
  0
VERTEX
  5
5C
100
AcDbEntity
  8
NONE
  6
CONTINUOUS
 62
     6
100
AcDbVertex
100
AcDb2dVertex
 10
-1.236111
 20
-1.819444
 30
0.0
  0
VERTEX
  5
5D
100
AcDbEntity
  8
NONE
  6
CONTINUOUS
 62
     6
100
AcDbVertex
100
AcDb2dVertex
 10
-1.069444
 20
-1.819444
 30
0.0
  0
VERTEX
  5
5E
100
AcDbEntity
  8
NONE
  6
CONTINUOUS
 62
     6
100
AcDbVertex
100
AcDb2dVertex
 10
-1.069444
 20
0.944444
 30
0.0
  0
VERTEX
  5
5F
100
AcDbEntity
  8
NONE
  6
CONTINUOUS
 62
     6
100
AcDbVertex
100
AcDb2dVertex
 10
-0.958333
 20
0.944444
 30
0.0
  0
VERTEX
  5
60
100
AcDbEntity
  8
NONE
  6
CONTINUOUS
 62
     6
100
AcDbVertex
100
AcDb2dVertex
 10
-0.958333
 20
1.069444
 30
0.0
  0
VERTEX
  5
61
100
AcDbEntity
  8
NONE
  6
CONTINUOUS
 62
     6
100
AcDbVertex
100
AcDb2dVertex
 10
-0.861111
 20
1.069444
 30
0.0
  0
VERTEX
  5
62
100
AcDbEntity
  8
NONE
  6
CONTINUOUS
 62
     6
100
AcDbVertex
100
AcDb2dVertex
 10
-0.861111
 20
1.277778
 30
0.0
  0
VERTEX
  5
63
100
AcDbEntity
  8
NONE
  6
CONTINUOUS
 62
     6
100
AcDbVertex
100
AcDb2dVertex
 10
-1.236111
 20
1.277778
 30
0.0
  0
VERTEX
  5
64
100
AcDbEntity
  8
NONE
  6
CONTINUOUS
 62
     6
100
AcDbVertex
100
AcDb2dVertex
 10
-1.236111
 20
4.638889
 30
0.0
  0
VERTEX
  5
65
100
AcDbEntity
  8
NONE
  6
CONTINUOUS
 62
     6
100
AcDbVertex
100
AcDb2dVertex
 10
-1.291667
 20
4.569444
 30
0.0
  0
VERTEX
  5
66
100
AcDbEntity
  8
NONE
  6
CONTINUOUS
 62
     6
100
AcDbVertex
100
AcDb2dVertex
 10
-1.291667
 20
4.569444
 30
0.0
  0
VERTEX
  5
67
100
AcDbEntity
  8
NONE
  6
CONTINUOUS
 62
     6
100
AcDbVertex
100
AcDb2dVertex
 10
-1.402778
 20
4.722222
 30
0.0
  0
SEQEND
  5
68
100
AcDbEntity
  8
NONE
  6
CONTINUOUS
  0
LINE
  5
69
100
AcDbEntity
  8
NONE
  6
CONTINUOUS
 62
     6
100
AcDbLine
 10
-0.361111
 20
-4.291667
 30
0.0
 11
-0.361111
 21
-3.041667
 31
0.0
  0
POLYLINE
  5
6A
100
AcDbEntity
  8
NONE
  6
CONTINUOUS
 62
     6
100
AcDb2dPolyline
 66
     1
 10
0.0
 20
0.0
 30
0.0
 40
0.014
 41
0.014
 75
     5
  0
VERTEX
  5
6B
100
AcDbEntity
  8
NONE
  6
CONTINUOUS
 62
     6
100
AcDbVertex
100
AcDb2dVertex
 10
-0.361111
 20
-4.416667
 30
0.0
  0
VERTEX
  5
6C
100
AcDbEntity
  8
NONE
  6
CONTINUOUS
 62
     6
100
AcDbVertex
100
AcDb2dVertex
 10
-0.319445
 20
-4.291667
 30
0.0
  0
VERTEX
  5
6D
100
AcDbEntity
  8
NONE
  6
CONTINUOUS
 62
     6
100
AcDbVertex
100
AcDb2dVertex
 10
-0.361111
 20
-4.291667
 30
0.0
  0
VERTEX
  5
6E
100
AcDbEntity
  8
NONE
  6
CONTINUOUS
 62
     6
100
AcDbVertex
100
AcDb2dVertex
 10
-0.402778
 20
-4.291667
 30
0.0
  0
VERTEX
  5
6F
100
AcDbEntity
  8
NONE
  6
CONTINUOUS
 62
     6
100
AcDbVertex
100
AcDb2dVertex
 10
-0.361111
 20
-4.416667
 30
0.0
  0
SEQEND
  5
70
100
AcDbEntity
  8
NONE
  6
CONTINUOUS
  0
POLYLINE
  5
71
100
AcDbEntity
  8
NONE
  6
CONTINUOUS
 62
     6
100
AcDb2dPolyline
 66
     1
 10
0.0
 20
0.0
 30
0.0
 40
0.014
 41
0.014
 75
     5
  0
VERTEX
  5
72
100
AcDbEntity
  8
NONE
  6
CONTINUOUS
 62
     6
100
AcDbVertex
100
AcDb2dVertex
 10
-0.361111
 20
-2.916667
 30
0.0
  0
VERTEX
  5
73
100
AcDbEntity
  8
NONE
  6
CONTINUOUS
 62
     6
100
AcDbVertex
100
AcDb2dVertex
 10
-0.319445
 20
-3.041667
 30
0.0
  0
VERTEX
  5
74
100
AcDbEntity
  8
NONE
  6
CONTINUOUS
 62
     6
100
AcDbVertex
100
AcDb2dVertex
 10
-0.361111
 20
-3.041667
 30
0.0
  0
VERTEX
  5
75
100
AcDbEntity
  8
NONE
  6
CONTINUOUS
 62
     6
100
AcDbVertex
100
AcDb2dVertex
 10
-0.402778
 20
-3.041667
 30
0.0
  0
VERTEX
  5
76
100
AcDbEntity
  8
NONE
  6
CONTINUOUS
 62
     6
100
AcDbVertex
100
AcDb2dVertex
 10
-0.361111
 20
-2.916667
 30
0.0
  0
SEQEND
  5
77
100
AcDbEntity
  8
NONE
  6
CONTINUOUS
  0
LWPOLYLINE
  5
78
100
AcDbEntity
  8
NONE
  6
CONTINUOUS
 62
     4
100
AcDbPolyline
 90
        5
 70
   129
 10
-0.513889
 20
-3.527778
 10
-0.208333
 20
-3.527778
 10
-0.208333
 20
-3.805556
 10
-0.513889
 20
-3.805556
 10
-0.513889
 20
-3.527778
  0
TEXT
  5
79
100
AcDbEntity
  8
NONE
 62
     7
100
AcDbText
 10
-0.444445
 20
-3.555556
 30
0.0
 40
0.133333
  1
3'
 41
0.6
 11
-0.444445
 21
-3.555556
 31
0.0
100
AcDbText
 73
     3
  0
LINE
  5
7A
100
AcDbEntity
  8
NONE
  6
CONTINUOUS
 62
     6
100
AcDbLine
 10
0.555555
 20
-2.597222
 30
0.0
 11
3.805556
 21
-2.597222
 31
0.0
  0
POLYLINE
  5
7B
100
AcDbEntity
  8
NONE
  6
CONTINUOUS
 62
     6
100
AcDb2dPolyline
 66
     1
 10
0.0
 20
0.0
 30
0.0
 40
0.014
 41
0.014
 75
     5
  0
VERTEX
  5
7C
100
AcDbEntity
  8
NONE
  6
CONTINUOUS
 62
     6
100
AcDbVertex
100
AcDb2dVertex
 10
0.430555
 20
-2.597222
 30
0.0
  0
VERTEX
  5
7D
100
AcDbEntity
  8
NONE
  6
CONTINUOUS
 62
     6
100
AcDbVertex
100
AcDb2dVertex
 10
0.555555
 20
-2.638889
 30
0.0
  0
VERTEX
  5
7E
100
AcDbEntity
  8
NONE
  6
CONTINUOUS
 62
     6
100
AcDbVertex
100
AcDb2dVertex
 10
0.555555
 20
-2.597222
 30
0.0
  0
VERTEX
  5
7F
100
AcDbEntity
  8
NONE
  6
CONTINUOUS
 62
     6
100
AcDbVertex
100
AcDb2dVertex
 10
0.555555
 20
-2.555556
 30
0.0
  0
VERTEX
  5
80
100
AcDbEntity
  8
NONE
  6
CONTINUOUS
 62
     6
100
AcDbVertex
100
AcDb2dVertex
 10
0.430555
 20
-2.597222
 30
0.0
  0
SEQEND
  5
81
100
AcDbEntity
  8
NONE
  6
CONTINUOUS
  0
POLYLINE
  5
82
100
AcDbEntity
  8
NONE
  6
CONTINUOUS
 62
     6
100
AcDb2dPolyline
 66
     1
 10
0.0
 20
0.0
 30
0.0
 40
0.014
 41
0.014
 75
     5
  0
VERTEX
  5
83
100
AcDbEntity
  8
NONE
  6
CONTINUOUS
 62
     6
100
AcDbVertex
100
AcDb2dVertex
 10
3.930556
 20
-2.597222
 30
0.0
  0
VERTEX
  5
84
100
AcDbEntity
  8
NONE
  6
CONTINUOUS
 62
     6
100
AcDbVertex
100
AcDb2dVertex
 10
3.805556
 20
-2.638889
 30
0.0
  0
VERTEX
  5
85
100
AcDbEntity
  8
NONE
  6
CONTINUOUS
 62
     6
100
AcDbVertex
100
AcDb2dVertex
 10
3.805556
 20
-2.597222
 30
0.0
  0
VERTEX
  5
86
100
AcDbEntity
  8
NONE
  6
CONTINUOUS
 62
     6
100
AcDbVertex
100
AcDb2dVertex
 10
3.805556
 20
-2.555556
 30
0.0
  0
VERTEX
  5
87
100
AcDbEntity
  8
NONE
  6
CONTINUOUS
 62
     6
100
AcDbVertex
100
AcDb2dVertex
 10
3.930556
 20
-2.597222
 30
0.0
  0
SEQEND
  5
88
100
AcDbEntity
  8
NONE
  6
CONTINUOUS
  0
LWPOLYLINE
  5
89
100
AcDbEntity
  8
NONE
  6
CONTINUOUS
 62
     4
100
AcDbPolyline
 90
        5
 70
   129
 10
2.027778
 20
-2.472222
 10
2.333333
 20
-2.472222
 10
2.333333
 20
-2.75
 10
2.027778
 20
-2.75
 10
2.027778
 20
-2.472222
  0
TEXT
  5
8A
100
AcDbEntity
  8
NONE
 62
     7
100
AcDbText
 10
2.097222
 20
-2.5
 30
0.0
 40
0.133333
  1
7'
 41
0.6
 11
2.097222
 21
-2.5
 31
0.0
100
AcDbText
 73
     3
  0
LINE
  5
8B
100
AcDbEntity
  8
NONE
  6
CONTINUOUS
 62
     6
100
AcDbLine
 10
-0.361111
 20
-4.555556
 30
0.0
 11
-0.361111
 21
-5.138889
 31
0.0
  0
POLYLINE
  5
8C
100
AcDbEntity
  8
NONE
  6
CONTINUOUS
 62
     6
100
AcDb2dPolyline
 66
     1
 10
0.0
 20
0.0
 30
0.0
 40
0.014
 41
0.014
 75
     5
  0
VERTEX
  5
8D
100
AcDbEntity
  8
NONE
  6
CONTINUOUS
 62
     6
100
AcDbVertex
100
AcDb2dVertex
 10
-0.361111
 20
-4.430556
 30
0.0
  0
VERTEX
  5
8E
100
AcDbEntity
  8
NONE
  6
CONTINUOUS
 62
     6
100
AcDbVertex
100
AcDb2dVertex
 10
-0.402778
 20
-4.555556
 30
0.0
  0
VERTEX
  5
8F
100
AcDbEntity
  8
NONE
  6
CONTINUOUS
 62
     6
100
AcDbVertex
100
AcDb2dVertex
 10
-0.361111
 20
-4.555556
 30
0.0
  0
VERTEX
  5
90
100
AcDbEntity
  8
NONE
  6
CONTINUOUS
 62
     6
100
AcDbVertex
100
AcDb2dVertex
 10
-0.319445
 20
-4.555556
 30
0.0
  0
VERTEX
  5
91
100
AcDbEntity
  8
NONE
  6
CONTINUOUS
 62
     6
100
AcDbVertex
100
AcDb2dVertex
 10
-0.361111
 20
-4.430556
 30
0.0
  0
SEQEND
  5
92
100
AcDbEntity
  8
NONE
  6
CONTINUOUS
  0
POLYLINE
  5
93
100
AcDbEntity
  8
NONE
  6
CONTINUOUS
 62
     6
100
AcDb2dPolyline
 66
     1
 10
0.0
 20
0.0
 30
0.0
 40
0.014
 41
0.014
 75
     5
  0
VERTEX
  5
94
100
AcDbEntity
  8
NONE
  6
CONTINUOUS
 62
     6
100
AcDbVertex
100
AcDb2dVertex
 10
-0.361111
 20
-5.263889
 30
0.0
  0
VERTEX
  5
95
100
AcDbEntity
  8
NONE
  6
CONTINUOUS
 62
     6
100
AcDbVertex
100
AcDb2dVertex
 10
-0.402778
 20
-5.138889
 30
0.0
  0
VERTEX
  5
96
100
AcDbEntity
  8
NONE
  6
CONTINUOUS
 62
     6
100
AcDbVertex
100
AcDb2dVertex
 10
-0.361111
 20
-5.138889
 30
0.0
  0
VERTEX
  5
97
100
AcDbEntity
  8
NONE
  6
CONTINUOUS
 62
     6
100
AcDbVertex
100
AcDb2dVertex
 10
-0.319445
 20
-5.138889
 30
0.0
  0
VERTEX
  5
98
100
AcDbEntity
  8
NONE
  6
CONTINUOUS
 62
     6
100
AcDbVertex
100
AcDb2dVertex
 10
-0.361111
 20
-5.263889
 30
0.0
  0
SEQEND
  5
99
100
AcDbEntity
  8
NONE
  6
CONTINUOUS
  0
LWPOLYLINE
  5
9A
100
AcDbEntity
  8
NONE
  6
CONTINUOUS
 62
     4
100
AcDbPolyline
 90
        5
 70
   129
 10
-0.638889
 20
-4.722222
 10
-0.083333
 20
-4.722222
 10
-0.083333
 20
-5.0
 10
-0.638889
 20
-5.0
 10
-0.638889
 20
-4.722222
  0
TEXT
  5
9B
100
AcDbEntity
  8
NONE
 62
     7
100
AcDbText
 10
-0.555556
 20
-4.75
 30
0.0
 40
0.133333
  1
1' 8"
 41
0.6
 11
-0.555556
 21
-4.75
 31
0.0
100
AcDbText
 73
     3
  0
LWPOLYLINE
  5
9C
100
AcDbEntity
  8
NONE
  6
CONTINUOUS
 62
     6
100
AcDbPolyline
 90
        5
 70
   129
 10
0.458333
 20
4.805555
 10
3.958333
 20
4.805555
 10
3.958333
 20
-1.916667
 10
0.458333
 20
-1.916667
 10
0.458333
 20
4.805555
  0
LWPOLYLINE
  5
9D
100
AcDbEntity
  8
NONE
  6
CONTINUOUS
 62
     6
100
AcDbPolyline
 90
        5
 70
   129
 10
0.458333
 20
-1.916667
 10
3.958333
 20
-1.916667
 10
3.958333
 20
-2.166667
 10
0.458333
 20
-2.166667
 10
0.458333
 20
-1.916667
  0
LWPOLYLINE
  5
9E
100
AcDbEntity
  8
NONE
  6
CONTINUOUS
 62
     6
100
AcDbPolyline
 90
        5
 70
   129
 10
0.930555
 20
0.444444
 10
3.430556
 20
0.444444
 10
3.430556
 20
-1.819444
 10
0.930555
 20
-1.819444
 10
0.930555
 20
0.444444
  0
LINE
  5
9F
100
AcDbEntity
  8
NONE
  6
CONTINUOUS
 62
     6
100
AcDbLine
 10
1.736111
 20
-1.819444
 30
0.0
 11
1.736111
 21
0.444444
 31
0.0
  0
LINE
  5
A0
100
AcDbEntity
  8
NONE
  6
CONTINUOUS
 62
     6
100
AcDbLine
 10
2.652778
 20
-1.819444
 30
0.0
 11
2.652778
 21
0.444444
 31
0.0
  0
LINE
  5
A1
100
AcDbEntity
  8
NONE
  6
CONTINUOUS
 62
     6
100
AcDbLine
 10
0.958333
 20
-0.680556
 30
0.0
 11
3.430556
 21
-0.680556
 31
0.0
  0
LINE
  5
A2
100
AcDbEntity
  8
NONE
  6
CONTINUOUS
 62
     6
100
AcDbLine
 10
0.930555
 20
-0.875
 30
0.0
 11
3.430556
 21
-0.875
 31
0.0
  0
LINE
  5
A3
100
AcDbEntity
  8
NONE
  6
CONTINUOUS
 62
     6
100
AcDbLine
 10
0.930555
 20
-1.083333
 30
0.0
 11
3.430556
 21
-1.083333
 31
0.0
  0
LINE
  5
A4
100
AcDbEntity
  8
NONE
  6
CONTINUOUS
 62
     6
100
AcDbLine
 10
0.930555
 20
-1.263889
 30
0.0
 11
3.430556
 21
-1.263889
 31
0.0
  0
LINE
  5
A5
100
AcDbEntity
  8
NONE
  6
CONTINUOUS
 62
     6
100
AcDbLine
 10
0.930555
 20
-1.458333
 30
0.0
 11
3.430556
 21
-1.458333
 31
0.0
  0
LINE
  5
A6
100
AcDbEntity
  8
NONE
  6
CONTINUOUS
 62
     6
100
AcDbLine
 10
0.944444
 20
-1.652778
 30
0.0
 11
3.444444
 21
-1.652778
 31
0.0
  0
LINE
  5
A7
100
AcDbEntity
  8
NONE
  6
CONTINUOUS
 62
     6
100
AcDbLine
 10
0.944444
 20
-0.5
 30
0.0
 11
3.430556
 21
-0.5
 31
0.0
  0
LINE
  5
A8
100
AcDbEntity
  8
NONE
  6
CONTINUOUS
 62
     6
100
AcDbLine
 10
0.930555
 20
-0.319445
 30
0.0
 11
3.416667
 21
-0.319445
 31
0.0
  0
LINE
  5
A9
100
AcDbEntity
  8
NONE
  6
CONTINUOUS
 62
     6
100
AcDbLine
 10
0.944444
 20
-0.125
 30
0.0
 11
3.430556
 21
-0.125
 31
0.0
  0
LINE
  5
AA
100
AcDbEntity
  8
NONE
  6
CONTINUOUS
 62
     6
100
AcDbLine
 10
0.930555
 20
0.069444
 30
0.0
 11
3.416667
 21
0.069444
 31
0.0
  0
LINE
  5
AB
100
AcDbEntity
  8
NONE
  6
CONTINUOUS
 62
     6
100
AcDbLine
 10
0.944444
 20
0.25
 30
0.0
 11
3.430556
 21
0.25
 31
0.0
  0
LINE
  5
AC
100
AcDbEntity
  8
NONE
  6
CONTINUOUS
 62
     6
100
AcDbLine
 10
1.208333
 20
-1.652778
 30
0.0
 11
1.208333
 21
-1.819444
 31
0.0
  0
LINE
  5
AD
100
AcDbEntity
  8
NONE
  6
CONTINUOUS
 62
     6
100
AcDbLine
 10
1.486111
 20
-1.652778
 30
0.0
 11
1.486111
 21
-1.819444
 31
0.0
  0
LINE
  5
AE
100
AcDbEntity
  8
NONE
  6
CONTINUOUS
 62
     6
100
AcDbLine
 10
2.111111
 20
-1.652778
 30
0.0
 11
2.111111
 21
-1.819444
 31
0.0
  0
LINE
  5
AF
100
AcDbEntity
  8
NONE
  6
CONTINUOUS
 62
     6
100
AcDbLine
 10
2.527778
 20
-1.652778
 30
0.0
 11
2.527778
 21
-1.819444
 31
0.0
  0
LINE
  5
B0
100
AcDbEntity
  8
NONE
  6
CONTINUOUS
 62
     6
100
AcDbLine
 10
2.902778
 20
-1.652778
 30
0.0
 11
2.902778
 21
-1.819444
 31
0.0
  0
LINE
  5
B1
100
AcDbEntity
  8
NONE
  6
CONTINUOUS
 62
     6
100
AcDbLine
 10
3.180556
 20
-1.652778
 30
0.0
 11
3.180556
 21
-1.791667
 31
0.0
  0
LINE
  5
B2
100
AcDbEntity
  8
NONE
  6
CONTINUOUS
 62
     6
100
AcDbLine
 10
1.208333
 20
-1.291667
 30
0.0
 11
1.208333
 21
-1.458333
 31
0.0
  0
LINE
  5
B3
100
AcDbEntity
  8
NONE
  6
CONTINUOUS
 62
     6
100
AcDbLine
 10
1.208333
 20
-0.902778
 30
0.0
 11
1.208333
 21
-1.069444
 31
0.0
  0
LINE
  5
B4
100
AcDbEntity
  8
NONE
  6
CONTINUOUS
 62
     6
100
AcDbLine
 10
1.208333
 20
-0.527778
 30
0.0
 11
1.208333
 21
-0.694445
 31
0.0
  0
LINE
  5
B5
100
AcDbEntity
  8
NONE
  6
CONTINUOUS
 62
     6
100
AcDbLine
 10
1.208333
 20
-0.138889
 30
0.0
 11
1.208333
 21
-0.305556
 31
0.0
  0
LINE
  5
B6
100
AcDbEntity
  8
NONE
  6
CONTINUOUS
 62
     6
100
AcDbLine
 10
1.208333
 20
0.25
 30
0.0
 11
1.208333
 21
0.083333
 31
0.0
  0
LINE
  5
B7
100
AcDbEntity
  8
NONE
  6
CONTINUOUS
 62
     6
100
AcDbLine
 10
1.486111
 20
-1.291667
 30
0.0
 11
1.486111
 21
-1.458333
 31
0.0
  0
LINE
  5
B8
100
AcDbEntity
  8
NONE
  6
CONTINUOUS
 62
     6
100
AcDbLine
 10
1.486111
 20
-0.888889
 30
0.0
 11
1.486111
 21
-1.055556
 31
0.0
  0
LINE
  5
B9
100
AcDbEntity
  8
NONE
  6
CONTINUOUS
 62
     6
100
AcDbLine
 10
1.513889
 20
-0.5
 30
0.0
 11
1.513889
 21
-0.666667
 31
0.0
  0
LINE
  5
BA
100
AcDbEntity
  8
NONE
  6
CONTINUOUS
 62
     6
100
AcDbLine
 10
1.513889
 20
-0.138889
 30
0.0
 11
1.513889
 21
-0.305556
 31
0.0
  0
LINE
  5
BB
100
AcDbEntity
  8
NONE
  6
CONTINUOUS
 62
     6
100
AcDbLine
 10
1.513889
 20
0.25
 30
0.0
 11
1.513889
 21
0.083333
 31
0.0
  0
LINE
  5
BC
100
AcDbEntity
  8
NONE
  6
CONTINUOUS
 62
     6
100
AcDbLine
 10
1.347222
 20
-1.458333
 30
0.0
 11
1.347222
 21
-1.652778
 31
0.0
  0
LINE
  5
BD
100
AcDbEntity
  8
NONE
  6
CONTINUOUS
 62
     6
100
AcDbLine
 10
1.347222
 20
-1.083333
 30
0.0
 11
1.347222
 21
-1.263889
 31
0.0
  0
LINE
  5
BE
100
AcDbEntity
  8
NONE
  6
CONTINUOUS
 62
     6
100
AcDbLine
 10
1.347222
 20
-0.694445
 30
0.0
 11
1.347222
 21
-0.875
 31
0.0
  0
LINE
  5
BF
100
AcDbEntity
  8
NONE
  6
CONTINUOUS
 62
     6
100
AcDbLine
 10
1.347222
 20
-0.305556
 30
0.0
 11
1.347222
 21
-0.5
 31
0.0
  0
LINE
  5
C0
100
AcDbEntity
  8
NONE
  6
CONTINUOUS
 62
     6
100
AcDbLine
 10
1.347222
 20
0.083333
 30
0.0
 11
1.347222
 21
-0.111111
 31
0.0
  0
LINE
  5
C1
100
AcDbEntity
  8
NONE
  6
CONTINUOUS
 62
     6
100
AcDbLine
 10
1.347222
 20
0.458333
 30
0.0
 11
1.347222
 21
0.277778
 31
0.0
  0
LINE
  5
C2
100
AcDbEntity
  8
NONE
  6
CONTINUOUS
 62
     6
100
AcDbLine
 10
1.083333
 20
-1.458333
 30
0.0
 11
1.083333
 21
-1.652778
 31
0.0
  0
LINE
  5
C3
100
AcDbEntity
  8
NONE
  6
CONTINUOUS
 62
     6
100
AcDbLine
 10
1.611111
 20
-1.458333
 30
0.0
 11
1.611111
 21
-1.652778
 31
0.0
  0
LINE
  5
C4
100
AcDbEntity
  8
NONE
  6
CONTINUOUS
 62
     6
100
AcDbLine
 10
1.611111
 20
-1.083333
 30
0.0
 11
1.611111
 21
-1.263889
 31
0.0
  0
LINE
  5
C5
100
AcDbEntity
  8
NONE
  6
CONTINUOUS
 62
     6
100
AcDbLine
 10
1.611111
 20
-0.694445
 30
0.0
 11
1.611111
 21
-0.875
 31
0.0
  0
LINE
  5
C6
100
AcDbEntity
  8
NONE
  6
CONTINUOUS
 62
     6
100
AcDbLine
 10
1.611111
 20
-0.305556
 30
0.0
 11
1.611111
 21
-0.5
 31
0.0
  0
LINE
  5
C7
100
AcDbEntity
  8
NONE
  6
CONTINUOUS
 62
     6
100
AcDbLine
 10
1.611111
 20
0.069444
 30
0.0
 11
1.611111
 21
-0.125
 31
0.0
  0
LINE
  5
C8
100
AcDbEntity
  8
NONE
  6
CONTINUOUS
 62
     6
100
AcDbLine
 10
1.611111
 20
0.458333
 30
0.0
 11
1.611111
 21
0.263889
 31
0.0
  0
LINE
  5
C9
100
AcDbEntity
  8
NONE
  6
CONTINUOUS
 62
     6
100
AcDbLine
 10
1.083333
 20
-1.083333
 30
0.0
 11
1.083333
 21
-1.277778
 31
0.0
  0
LINE
  5
CA
100
AcDbEntity
  8
NONE
  6
CONTINUOUS
 62
     6
100
AcDbLine
 10
1.083333
 20
-0.708333
 30
0.0
 11
1.083333
 21
-0.902778
 31
0.0
  0
LINE
  5
CB
100
AcDbEntity
  8
NONE
  6
CONTINUOUS
 62
     6
100
AcDbLine
 10
1.083333
 20
-0.333333
 30
0.0
 11
1.083333
 21
-0.513889
 31
0.0
  0
LINE
  5
CC
100
AcDbEntity
  8
NONE
  6
CONTINUOUS
 62
     6
100
AcDbLine
 10
1.083333
 20
0.055556
 30
0.0
 11
1.083333
 21
-0.125
 31
0.0
  0
LINE
  5
CD
100
AcDbEntity
  8
NONE
  6
CONTINUOUS
 62
     6
100
AcDbLine
 10
1.083333
 20
0.430555
 30
0.0
 11
1.083333
 21
0.25
 31
0.0
  0
LINE
  5
CE
100
AcDbEntity
  8
NONE
  6
CONTINUOUS
 62
     6
100
AcDbLine
 10
1.833333
 20
-1.458333
 30
0.0
 11
1.833333
 21
-1.652778
 31
0.0
  0
LINE
  5
CF
100
AcDbEntity
  8
NONE
  6
CONTINUOUS
 62
     6
100
AcDbLine
 10
1.833333
 20
-1.083333
 30
0.0
 11
1.833333
 21
-1.277778
 31
0.0
  0
LINE
  5
D0
100
AcDbEntity
  8
NONE
  6
CONTINUOUS
 62
     6
100
AcDbLine
 10
1.833333
 20
-0.708333
 30
0.0
 11
1.833333
 21
-0.888889
 31
0.0
  0
LINE
  5
D1
100
AcDbEntity
  8
NONE
  6
CONTINUOUS
 62
     6
100
AcDbLine
 10
1.847222
 20
-0.319445
 30
0.0
 11
1.847222
 21
-0.5
 31
0.0
  0
LINE
  5
D2
100
AcDbEntity
  8
NONE
  6
CONTINUOUS
 62
     6
100
AcDbLine
 10
1.847222
 20
0.069444
 30
0.0
 11
1.847222
 21
-0.125
 31
0.0
  0
LINE
  5
D3
100
AcDbEntity
  8
NONE
  6
CONTINUOUS
 62
     6
100
AcDbLine
 10
1.833333
 20
0.444444
 30
0.0
 11
1.833333
 21
0.25
 31
0.0
  0
LINE
  5
D4
100
AcDbEntity
  8
NONE
  6
CONTINUOUS
 62
     6
100
AcDbLine
 10
2.111111
 20
-1.291667
 30
0.0
 11
2.111111
 21
-1.458333
 31
0.0
  0
LINE
  5
D5
100
AcDbEntity
  8
NONE
  6
CONTINUOUS
 62
     6
100
AcDbLine
 10
2.111111
 20
-0.902778
 30
0.0
 11
2.111111
 21
-1.069444
 31
0.0
  0
LINE
  5
D6
100
AcDbEntity
  8
NONE
  6
CONTINUOUS
 62
     6
100
AcDbLine
 10
2.111111
 20
-0.5
 30
0.0
 11
2.111111
 21
-0.666667
 31
0.0
  0
LINE
  5
D7
100
AcDbEntity
  8
NONE
  6
CONTINUOUS
 62
     6
100
AcDbLine
 10
2.111111
 20
-0.125
 30
0.0
 11
2.111111
 21
-0.291667
 31
0.0
  0
LINE
  5
D8
100
AcDbEntity
  8
NONE
  6
CONTINUOUS
 62
     6
100
AcDbLine
 10
2.111111
 20
0.236111
 30
0.0
 11
2.111111
 21
0.069444
 31
0.0
  0
LINE
  5
D9
100
AcDbEntity
  8
NONE
  6
CONTINUOUS
 62
     6
100
AcDbLine
 10
2.527778
 20
-1.291667
 30
0.0
 11
2.527778
 21
-1.458333
 31
0.0
  0
LINE
  5
DA
100
AcDbEntity
  8
NONE
  6
CONTINUOUS
 62
     6
100
AcDbLine
 10
2.527778
 20
-0.888889
 30
0.0
 11
2.527778
 21
-1.055556
 31
0.0
  0
LINE
  5
DB
100
AcDbEntity
  8
NONE
  6
CONTINUOUS
 62
     6
100
AcDbLine
 10
2.513889
 20
-0.5
 30
0.0
 11
2.513889
 21
-0.666667
 31
0.0
  0
LINE
  5
DC
100
AcDbEntity
  8
NONE
  6
CONTINUOUS
 62
     6
100
AcDbLine
 10
2.513889
 20
-0.125
 30
0.0
 11
2.513889
 21
-0.291667
 31
0.0
  0
LINE
  5
DD
100
AcDbEntity
  8
NONE
  6
CONTINUOUS
 62
     6
100
AcDbLine
 10
2.541667
 20
0.25
 30
0.0
 11
2.541667
 21
0.083333
 31
0.0
  0
LINE
  5
DE
100
AcDbEntity
  8
NONE
  6
CONTINUOUS
 62
     6
100
AcDbLine
 10
2.25
 20
0.430555
 30
0.0
 11
2.25
 21
0.25
 31
0.0
  0
LINE
  5
DF
100
AcDbEntity
  8
NONE
  6
CONTINUOUS
 62
     6
100
AcDbLine
 10
2.277778
 20
0.055556
 30
0.0
 11
2.277778
 21
-0.111111
 31
0.0
  0
LINE
  5
E0
100
AcDbEntity
  8
NONE
  6
CONTINUOUS
 62
     6
100
AcDbLine
 10
2.277778
 20
-0.333333
 30
0.0
 11
2.277778
 21
-0.5
 31
0.0
  0
LINE
  5
E1
100
AcDbEntity
  8
NONE
  6
CONTINUOUS
 62
     6
100
AcDbLine
 10
2.263889
 20
-0.694445
 30
0.0
 11
2.263889
 21
-0.875
 31
0.0
  0
LINE
  5
E2
100
AcDbEntity
  8
NONE
  6
CONTINUOUS
 62
     6
100
AcDbLine
 10
2.263889
 20
-1.083333
 30
0.0
 11
2.263889
 21
-1.277778
 31
0.0
  0
LINE
  5
E3
100
AcDbEntity
  8
NONE
  6
CONTINUOUS
 62
     6
100
AcDbLine
 10
2.25
 20
-1.458333
 30
0.0
 11
2.25
 21
-1.652778
 31
0.0
  0
LINE
  5
E4
100
AcDbEntity
  8
NONE
  6
CONTINUOUS
 62
     6
100
AcDbLine
 10
2.902778
 20
-1.458333
 30
0.0
 11
2.902778
 21
-1.277778
 31
0.0
  0
LINE
  5
E5
100
AcDbEntity
  8
NONE
  6
CONTINUOUS
 62
     6
100
AcDbLine
 10
2.888889
 20
-1.083333
 30
0.0
 11
2.888889
 21
-0.875
 31
0.0
  0
LINE
  5
E6
100
AcDbEntity
  8
NONE
  6
CONTINUOUS
 62
     6
100
AcDbLine
 10
2.875
 20
-0.666667
 30
0.0
 11
2.875
 21
-0.5
 31
0.0
  0
LINE
  5
E7
100
AcDbEntity
  8
NONE
  6
CONTINUOUS
 62
     6
100
AcDbLine
 10
2.875
 20
-0.319445
 30
0.0
 11
2.875
 21
-0.125
 31
0.0
  0
LINE
  5
E8
100
AcDbEntity
  8
NONE
  6
CONTINUOUS
 62
     6
100
AcDbLine
 10
2.875
 20
0.083333
 30
0.0
 11
2.875
 21
0.25
 31
0.0
  0
LINE
  5
E9
100
AcDbEntity
  8
NONE
  6
CONTINUOUS
 62
     6
100
AcDbLine
 10
3.180556
 20
0.25
 30
0.0
 11
3.180556
 21
0.055556
 31
0.0
  0
LINE
  5
EA
100
AcDbEntity
  8
NONE
  6
CONTINUOUS
 62
     6
100
AcDbLine
 10
3.180556
 20
-0.125
 30
0.0
 11
3.180556
 21
-0.291667
 31
0.0
  0
LINE
  5
EB
100
AcDbEntity
  8
NONE
  6
CONTINUOUS
 62
     6
100
AcDbLine
 10
3.180556
 20
-0.5
 30
0.0
 11
3.180556
 21
-0.666667
 31
0.0
  0
LINE
  5
EC
100
AcDbEntity
  8
NONE
  6
CONTINUOUS
 62
     6
100
AcDbLine
 10
3.166667
 20
-0.875
 30
0.0
 11
3.166667
 21
-1.083333
 31
0.0
  0
LINE
  5
ED
100
AcDbEntity
  8
NONE
  6
CONTINUOUS
 62
     6
100
AcDbLine
 10
3.152778
 20
-1.277778
 30
0.0
 11
3.152778
 21
-1.458333
 31
0.0
  0
LINE
  5
EE
100
AcDbEntity
  8
NONE
  6
CONTINUOUS
 62
     6
100
AcDbLine
 10
3.041667
 20
-1.652778
 30
0.0
 11
3.041667
 21
-1.486111
 31
0.0
  0
LINE
  5
EF
100
AcDbEntity
  8
NONE
  6
CONTINUOUS
 62
     6
100
AcDbLine
 10
3.027778
 20
-1.277778
 30
0.0
 11
3.027778
 21
-1.083333
 31
0.0
  0
LINE
  5
F0
100
AcDbEntity
  8
NONE
  6
CONTINUOUS
 62
     6
100
AcDbLine
 10
3.055556
 20
-0.875
 30
0.0
 11
3.055556
 21
-0.694445
 31
0.0
  0
LINE
  5
F1
100
AcDbEntity
  8
NONE
  6
CONTINUOUS
 62
     6
100
AcDbLine
 10
3.041667
 20
-0.486111
 30
0.0
 11
3.041667
 21
-0.319445
 31
0.0
  0
LINE
  5
F2
100
AcDbEntity
  8
NONE
  6
CONTINUOUS
 62
     6
100
AcDbLine
 10
3.041667
 20
-0.111111
 30
0.0
 11
3.041667
 21
0.055556
 31
0.0
  0
LINE
  5
F3
100
AcDbEntity
  8
NONE
  6
CONTINUOUS
 62
     6
100
AcDbLine
 10
3.041667
 20
0.263889
 30
0.0
 11
3.041667
 21
0.416667
 31
0.0
  0
LINE
  5
F4
100
AcDbEntity
  8
NONE
  6
CONTINUOUS
 62
     6
100
AcDbLine
 10
3.305556
 20
0.430555
 30
0.0
 11
3.305556
 21
0.25
 31
0.0
  0
LINE
  5
F5
100
AcDbEntity
  8
NONE
  6
CONTINUOUS
 62
     6
100
AcDbLine
 10
3.305556
 20
0.041667
 30
0.0
 11
3.305556
 21
-0.111111
 31
0.0
  0
LINE
  5
F6
100
AcDbEntity
  8
NONE
  6
CONTINUOUS
 62
     6
100
AcDbLine
 10
3.319444
 20
-0.319445
 30
0.0
 11
3.319444
 21
-0.486111
 31
0.0
  0
LINE
  5
F7
100
AcDbEntity
  8
NONE
  6
CONTINUOUS
 62
     6
100
AcDbLine
 10
3.319444
 20
-0.694445
 30
0.0
 11
3.319444
 21
-0.875
 31
0.0
  0
LINE
  5
F8
100
AcDbEntity
  8
NONE
  6
CONTINUOUS
 62
     6
100
AcDbLine
 10
3.319444
 20
-1.083333
 30
0.0
 11
3.319444
 21
-1.277778
 31
0.0
  0
LINE
  5
F9
100
AcDbEntity
  8
NONE
  6
CONTINUOUS
 62
     6
100
AcDbLine
 10
3.333333
 20
-1.458333
 30
0.0
 11
3.333333
 21
-1.652778
 31
0.0
  0
LINE
  5
FA
100
AcDbEntity
  8
NONE
  6
CONTINUOUS
 62
     6
100
AcDbLine
 10
2.777778
 20
-1.652778
 30
0.0
 11
2.777778
 21
-1.486111
 31
0.0
  0
LINE
  5
FB
100
AcDbEntity
  8
NONE
  6
CONTINUOUS
 62
     6
100
AcDbLine
 10
2.777778
 20
-1.277778
 30
0.0
 11
2.777778
 21
-1.083333
 31
0.0
  0
LINE
  5
FC
100
AcDbEntity
  8
NONE
  6
CONTINUOUS
 62
     6
100
AcDbLine
 10
2.777778
 20
-0.875
 30
0.0
 11
2.777778
 21
-0.694445
 31
0.0
  0
LINE
  5
FD
100
AcDbEntity
  8
NONE
  6
CONTINUOUS
 62
     6
100
AcDbLine
 10
2.777778
 20
-0.5
 30
0.0
 11
2.777778
 21
-0.319445
 31
0.0
  0
LINE
  5
FE
100
AcDbEntity
  8
NONE
  6
CONTINUOUS
 62
     6
100
AcDbLine
 10
2.763889
 20
-0.125
 30
0.0
 11
2.763889
 21
0.055556
 31
0.0
  0
LINE
  5
FF
100
AcDbEntity
  8
NONE
  6
CONTINUOUS
 62
     6
100
AcDbLine
 10
2.763889
 20
0.25
 30
0.0
 11
2.763889
 21
0.430555
 31
0.0
  0
LINE
  5
100
100
AcDbEntity
  8
NONE
  6
CONTINUOUS
 62
     6
100
AcDbLine
 10
-3.444444
 20
-1.680556
 30
0.0
 11
-3.444444
 21
0.319444
 31
0.0
  0
POLYLINE
  5
101
100
AcDbEntity
  8
NONE
  6
CONTINUOUS
 62
     6
100
AcDb2dPolyline
 66
     1
 10
0.0
 20
0.0
 30
0.0
 40
0.014
 41
0.014
 75
     5
  0
VERTEX
  5
102
100
AcDbEntity
  8
NONE
  6
CONTINUOUS
 62
     6
100
AcDbVertex
100
AcDb2dVertex
 10
-3.444444
 20
-1.805556
 30
0.0
  0
VERTEX
  5
103
100
AcDbEntity
  8
NONE
  6
CONTINUOUS
 62
     6
100
AcDbVertex
100
AcDb2dVertex
 10
-3.402778
 20
-1.680556
 30
0.0
  0
VERTEX
  5
104
100
AcDbEntity
  8
NONE
  6
CONTINUOUS
 62
     6
100
AcDbVertex
100
AcDb2dVertex
 10
-3.444444
 20
-1.680556
 30
0.0
  0
VERTEX
  5
105
100
AcDbEntity
  8
NONE
  6
CONTINUOUS
 62
     6
100
AcDbVertex
100
AcDb2dVertex
 10
-3.486111
 20
-1.680556
 30
0.0
  0
VERTEX
  5
106
100
AcDbEntity
  8
NONE
  6
CONTINUOUS
 62
     6
100
AcDbVertex
100
AcDb2dVertex
 10
-3.444444
 20
-1.805556
 30
0.0
  0
SEQEND
  5
107
100
AcDbEntity
  8
NONE
  6
CONTINUOUS
  0
POLYLINE
  5
108
100
AcDbEntity
  8
NONE
  6
CONTINUOUS
 62
     6
100
AcDb2dPolyline
 66
     1
 10
0.0
 20
0.0
 30
0.0
 40
0.014
 41
0.014
 75
     5
  0
VERTEX
  5
109
100
AcDbEntity
  8
NONE
  6
CONTINUOUS
 62
     6
100
AcDbVertex
100
AcDb2dVertex
 10
-3.444444
 20
0.444444
 30
0.0
  0
VERTEX
  5
10A
100
AcDbEntity
  8
NONE
  6
CONTINUOUS
 62
     6
100
AcDbVertex
100
AcDb2dVertex
 10
-3.402778
 20
0.319444
 30
0.0
  0
VERTEX
  5
10B
100
AcDbEntity
  8
NONE
  6
CONTINUOUS
 62
     6
100
AcDbVertex
100
AcDb2dVertex
 10
-3.444444
 20
0.319444
 30
0.0
  0
VERTEX
  5
10C
100
AcDbEntity
  8
NONE
  6
CONTINUOUS
 62
     6
100
AcDbVertex
100
AcDb2dVertex
 10
-3.486111
 20
0.319444
 30
0.0
  0
VERTEX
  5
10D
100
AcDbEntity
  8
NONE
  6
CONTINUOUS
 62
     6
100
AcDbVertex
100
AcDb2dVertex
 10
-3.444444
 20
0.444444
 30
0.0
  0
SEQEND
  5
10E
100
AcDbEntity
  8
NONE
  6
CONTINUOUS
  0
LWPOLYLINE
  5
10F
100
AcDbEntity
  8
NONE
  6
CONTINUOUS
 62
     4
100
AcDbPolyline
 90
        5
 70
   129
 10
-3.722222
 20
-0.555556
 10
-3.166667
 20
-0.555556
 10
-3.166667
 20
-0.833333
 10
-3.722222
 20
-0.833333
 10
-3.722222
 20
-0.555556
  0
TEXT
  5
110
100
AcDbEntity
  8
NONE
 62
     7
100
AcDbText
 10
-3.638889
 20
-0.583333
 30
0.0
 40
0.133333
  1
4' 6"
 41
0.6
 11
-3.638889
 21
-0.583333
 31
0.0
100
AcDbText
 73
     3
  0
LINE
  5
111
100
AcDbEntity
  8
NONE
  6
CONTINUOUS
 62
     6
100
AcDbLine
 10
-2.680556
 20
0.444444
 30
0.0
 11
-3.611111
 21
0.444444
 31
0.0
  0
LINE
  5
112
100
AcDbEntity
  8
NONE
  6
CONTINUOUS
 62
     6
100
AcDbLine
 10
-2.694444
 20
-1.805556
 30
0.0
 11
-3.625
 21
-1.805556
 31
0.0
  0
LINE
  5
113
100
AcDbEntity
  8
NONE
  6
CONTINUOUS
 62
     6
100
AcDbLine
 10
-2.694444
 20
1.041667
 30
0.0
 11
-3.597222
 21
1.041667
 31
0.0
  0
LINE
  5
114
100
AcDbEntity
  8
NONE
  6
CONTINUOUS
 62
     6
100
AcDbLine
 10
-2.694444
 20
2.305556
 30
0.0
 11
-3.611111
 21
2.305556
 31
0.0
  0
LINE
  5
115
100
AcDbEntity
  8
NONE
  6
CONTINUOUS
 62
     6
100
AcDbLine
 10
-2.708333
 20
3.319444
 30
0.0
 11
-3.611111
 21
3.319444
 31
0.0
  0
LINE
  5
116
100
AcDbEntity
  8
NONE
  6
CONTINUOUS
 62
     6
100
AcDbLine
 10
-3.444444
 20
1.166667
 30
0.0
 11
-3.444444
 21
2.166667
 31
0.0
  0
POLYLINE
  5
117
100
AcDbEntity
  8
NONE
  6
CONTINUOUS
 62
     6
100
AcDb2dPolyline
 66
     1
 10
0.0
 20
0.0
 30
0.0
 40
0.014
 41
0.014
 75
     5
  0
VERTEX
  5
118
100
AcDbEntity
  8
NONE
  6
CONTINUOUS
 62
     6
100
AcDbVertex
100
AcDb2dVertex
 10
-3.444444
 20
1.041667
 30
0.0
  0
VERTEX
  5
119
100
AcDbEntity
  8
NONE
  6
CONTINUOUS
 62
     6
100
AcDbVertex
100
AcDb2dVertex
 10
-3.402778
 20
1.166667
 30
0.0
  0
VERTEX
  5
11A
100
AcDbEntity
  8
NONE
  6
CONTINUOUS
 62
     6
100
AcDbVertex
100
AcDb2dVertex
 10
-3.444444
 20
1.166667
 30
0.0
  0
VERTEX
  5
11B
100
AcDbEntity
  8
NONE
  6
CONTINUOUS
 62
     6
100
AcDbVertex
100
AcDb2dVertex
 10
-3.486111
 20
1.166667
 30
0.0
  0
VERTEX
  5
11C
100
AcDbEntity
  8
NONE
  6
CONTINUOUS
 62
     6
100
AcDbVertex
100
AcDb2dVertex
 10
-3.444444
 20
1.041667
 30
0.0
  0
SEQEND
  5
11D
100
AcDbEntity
  8
NONE
  6
CONTINUOUS
  0
POLYLINE
  5
11E
100
AcDbEntity
  8
NONE
  6
CONTINUOUS
 62
     6
100
AcDb2dPolyline
 66
     1
 10
0.0
 20
0.0
 30
0.0
 40
0.014
 41
0.014
 75
     5
  0
VERTEX
  5
11F
100
AcDbEntity
  8
NONE
  6
CONTINUOUS
 62
     6
100
AcDbVertex
100
AcDb2dVertex
 10
-3.444444
 20
2.291667
 30
0.0
  0
VERTEX
  5
120
100
AcDbEntity
  8
NONE
  6
CONTINUOUS
 62
     6
100
AcDbVertex
100
AcDb2dVertex
 10
-3.402778
 20
2.166667
 30
0.0
  0
VERTEX
  5
121
100
AcDbEntity
  8
NONE
  6
CONTINUOUS
 62
     6
100
AcDbVertex
100
AcDb2dVertex
 10
-3.444444
 20
2.166667
 30
0.0
  0
VERTEX
  5
122
100
AcDbEntity
  8
NONE
  6
CONTINUOUS
 62
     6
100
AcDbVertex
100
AcDb2dVertex
 10
-3.486111
 20
2.166667
 30
0.0
  0
VERTEX
  5
123
100
AcDbEntity
  8
NONE
  6
CONTINUOUS
 62
     6
100
AcDbVertex
100
AcDb2dVertex
 10
-3.444444
 20
2.291667
 30
0.0
  0
SEQEND
  5
124
100
AcDbEntity
  8
NONE
  6
CONTINUOUS
  0
LWPOLYLINE
  5
125
100
AcDbEntity
  8
NONE
  6
CONTINUOUS
 62
     4
100
AcDbPolyline
 90
        5
 70
   129
 10
-3.722222
 20
1.805556
 10
-3.166667
 20
1.805556
 10
-3.166667
 20
1.527778
 10
-3.722222
 20
1.527778
 10
-3.722222
 20
1.805556
  0
TEXT
  5
126
100
AcDbEntity
  8
NONE
 62
     7
100
AcDbText
 10
-3.638889
 20
1.777778
 30
0.0
 40
0.133333
  1
2' 6"
 41
0.6
 11
-3.638889
 21
1.777778
 31
0.0
100
AcDbText
 73
     3
  0
LINE
  5
127
100
AcDbEntity
  8
NONE
  6
CONTINUOUS
 62
     6
100
AcDbLine
 10
-3.444444
 20
2.444444
 30
0.0
 11
-3.444444
 21
3.194444
 31
0.0
  0
POLYLINE
  5
128
100
AcDbEntity
  8
NONE
  6
CONTINUOUS
 62
     6
100
AcDb2dPolyline
 66
     1
 10
0.0
 20
0.0
 30
0.0
 40
0.014
 41
0.014
 75
     5
  0
VERTEX
  5
129
100
AcDbEntity
  8
NONE
  6
CONTINUOUS
 62
     6
100
AcDbVertex
100
AcDb2dVertex
 10
-3.444444
 20
2.319444
 30
0.0
  0
VERTEX
  5
12A
100
AcDbEntity
  8
NONE
  6
CONTINUOUS
 62
     6
100
AcDbVertex
100
AcDb2dVertex
 10
-3.402778
 20
2.444444
 30
0.0
  0
VERTEX
  5
12B
100
AcDbEntity
  8
NONE
  6
CONTINUOUS
 62
     6
100
AcDbVertex
100
AcDb2dVertex
 10
-3.444444
 20
2.444444
 30
0.0
  0
VERTEX
  5
12C
100
AcDbEntity
  8
NONE
  6
CONTINUOUS
 62
     6
100
AcDbVertex
100
AcDb2dVertex
 10
-3.486111
 20
2.444444
 30
0.0
  0
VERTEX
  5
12D
100
AcDbEntity
  8
NONE
  6
CONTINUOUS
 62
     6
100
AcDbVertex
100
AcDb2dVertex
 10
-3.444444
 20
2.319444
 30
0.0
  0
SEQEND
  5
12E
100
AcDbEntity
  8
NONE
  6
CONTINUOUS
  0
POLYLINE
  5
12F
100
AcDbEntity
  8
NONE
  6
CONTINUOUS
 62
     6
100
AcDb2dPolyline
 66
     1
 10
0.0
 20
0.0
 30
0.0
 40
0.014
 41
0.014
 75
     5
  0
VERTEX
  5
130
100
AcDbEntity
  8
NONE
  6
CONTINUOUS
 62
     6
100
AcDbVertex
100
AcDb2dVertex
 10
-3.444444
 20
3.319444
 30
0.0
  0
VERTEX
  5
131
100
AcDbEntity
  8
NONE
  6
CONTINUOUS
 62
     6
100
AcDbVertex
100
AcDb2dVertex
 10
-3.402778
 20
3.194444
 30
0.0
  0
VERTEX
  5
132
100
AcDbEntity
  8
NONE
  6
CONTINUOUS
 62
     6
100
AcDbVertex
100
AcDb2dVertex
 10
-3.444444
 20
3.194444
 30
0.0
  0
VERTEX
  5
133
100
AcDbEntity
  8
NONE
  6
CONTINUOUS
 62
     6
100
AcDbVertex
100
AcDb2dVertex
 10
-3.486111
 20
3.194444
 30
0.0
  0
VERTEX
  5
134
100
AcDbEntity
  8
NONE
  6
CONTINUOUS
 62
     6
100
AcDbVertex
100
AcDb2dVertex
 10
-3.444444
 20
3.319444
 30
0.0
  0
SEQEND
  5
135
100
AcDbEntity
  8
NONE
  6
CONTINUOUS
  0
LWPOLYLINE
  5
136
100
AcDbEntity
  8
NONE
  6
CONTINUOUS
 62
     4
100
AcDbPolyline
 90
        5
 70
   129
 10
-3.597222
 20
2.944444
 10
-3.291667
 20
2.944444
 10
-3.291667
 20
2.666667
 10
-3.597222
 20
2.666667
 10
-3.597222
 20
2.944444
  0
TEXT
  5
137
100
AcDbEntity
  8
NONE
 62
     7
100
AcDbText
 10
-3.527778
 20
2.916667
 30
0.0
 40
0.133333
  1
2'
 41
0.6
 11
-3.527778
 21
2.916667
 31
0.0
100
AcDbText
 73
     3
  0
LWPOLYLINE
  5
138
100
AcDbEntity
  8
NONE
  6
CONTINUOUS
 62
     6
100
AcDbPolyline
 90
        5
 70
   129
 10
-2.319444
 20
4.347222
 10
-1.472222
 20
4.347222
 10
-1.472222
 20
3.333333
 10
-2.319444
 20
3.333333
 10
-2.319444
 20
4.347222
  0
LWPOLYLINE
  5
139
100
AcDbEntity
  8
NONE
  6
CONTINUOUS
 62
     6
100
AcDbPolyline
 90
        5
 70
   129
 10
-2.263889
 20
4.347222
 10
-1.527778
 20
4.347222
 10
-1.527778
 20
3.333333
 10
-2.263889
 20
3.333333
 10
-2.263889
 20
4.347222
  0
INSERT
  5
13A
100
AcDbEntity
  8
NONE
100
AcDbBlockReference
  2
*G2
 10
0.0
 20
0.0
 30
0.0
  0
LWPOLYLINE
  5
13B
100
AcDbEntity
  8
NONE
  6
CONTINUOUS
 62
     6
100
AcDbPolyline
 90
        5
 70
   129
 10
-2.319444
 20
2.291667
 10
-1.472222
 20
2.291667
 10
-1.472222
 20
1.027778
 10
-2.319444
 20
1.027778
 10
-2.319444
 20
2.291667
  0
LWPOLYLINE
  5
13C
100
AcDbEntity
  8
NONE
  6
CONTINUOUS
 62
     6
100
AcDbPolyline
 90
        5
 70
   129
 10
-2.263889
 20
2.291667
 10
-1.527778
 20
2.291667
 10
-1.527778
 20
1.027778
 10
-2.263889
 20
1.027778
 10
-2.263889
 20
2.291667
  0
INSERT
  5
13D
100
AcDbEntity
  8
NONE
100
AcDbBlockReference
  2
*G1
 10
0.0
 20
0.0
 30
0.0
  0
LINE
  5
13E
100
AcDbEntity
  8
NONE
  6
CONTINUOUS
 62
     6
100
AcDbLine
 10
-1.680556
 20
1.027778
 30
0.0
 11
-1.236111
 21
1.027778
 31
0.0
  0
LINE
  5
13F
100
AcDbEntity
  8
NONE
  6
CONTINUOUS
 62
     6
100
AcDbLine
 10
-1.263889
 20
1.0
 30
0.0
 11
-1.263889
 21
0.5
 31
0.0
  0
LINE
  5
140
100
AcDbEntity
  8
NONE
  6
CONTINUOUS
 62
     6
100
AcDbLine
 10
-1.236111
 20
1.027778
 30
0.0
 11
-1.236111
 21
0.444444
 31
0.0
  0
LINE
  5
141
100
AcDbEntity
  8
NONE
  6
CONTINUOUS
 62
     6
100
AcDbLine
 10
-1.638889
 20
1.0
 30
0.0
 11
-1.263889
 21
1.0
 31
0.0
  0
LINE
  5
142
100
AcDbEntity
  8
NONE
  6
CONTINUOUS
 62
     6
100
AcDbLine
 10
-1.236111
 20
0.416667
 30
0.0
 11
-1.236111
 21
-1.833333
 31
0.0
  0
LINE
  5
143
100
AcDbEntity
  8
NONE
  6
CONTINUOUS
 62
     6
100
AcDbLine
 10
-2.097222
 20
-1.833333
 30
0.0
 11
-2.097222
 21
1.041667
 31
0.0
  0
LWPOLYLINE
  5
144
100
AcDbEntity
  8
NONE
  6
CONTINUOUS
 62
     6
100
AcDbPolyline
 90
        5
 70
   129
 10
-2.388889
 20
1.041667
 10
-2.222222
 20
1.041667
 10
-2.222222
 20
-1.944444
 10
-2.388889
 20
-1.944444
 10
-2.388889
 20
1.041667
  0
LWPOLYLINE
  5
145
100
AcDbEntity
  8
NONE
  6
CONTINUOUS
 62
     6
100
AcDbPolyline
 90
        5
 70
   129
 10
-2.180556
 20
1.041667
 10
-2.069444
 20
1.041667
 10
-2.069444
 20
-1.861111
 10
-2.180556
 20
-1.861111
 10
-2.180556
 20
1.041667
  0
LWPOLYLINE
  5
146
100
AcDbEntity
  8
NONE
  6
CONTINUOUS
 62
     6
100
AcDbPolyline
 90
        5
 70
   129
 10
-2.569444
 20
4.791667
 10
-2.388889
 20
4.791667
 10
-2.388889
 20
-1.972222
 10
-2.569444
 20
-1.972222
 10
-2.569444
 20
4.791667
  0
LINE
  5
147
100
AcDbEntity
  8
NONE
  6
CONTINUOUS
 62
     6
100
AcDbLine
 10
-1.930556
 20
1.0
 30
0.0
 11
-1.930556
 21
0.833333
 31
0.0
  0
LINE
  5
148
100
AcDbEntity
  8
NONE
  6
CONTINUOUS
 62
     6
100
AcDbLine
 10
-1.819444
 20
0.833333
 30
0.0
 11
-1.819444
 21
0.625
 31
0.0
  0
LINE
  5
149
100
AcDbEntity
  8
NONE
  6
CONTINUOUS
 62
     6
100
AcDbLine
 10
-2.069444
 20
0.833333
 30
0.0
 11
-1.625
 21
0.833333
 31
0.0
  0
LINE
  5
14A
100
AcDbEntity
  8
NONE
  6
CONTINUOUS
 62
     6
100
AcDbLine
 10
-2.055556
 20
0.625
 30
0.0
 11
-1.541667
 21
0.625
 31
0.0
  0
LINE
  5
14B
100
AcDbEntity
  8
NONE
  6
CONTINUOUS
 62
     6
100
AcDbLine
 10
-2.069444
 20
0.444444
 30
0.0
 11
-1.236111
 21
0.444444
 31
0.0
  0
LINE
  5
14C
100
AcDbEntity
  8
NONE
  6
CONTINUOUS
 62
     6
100
AcDbLine
 10
-2.069444
 20
0.25
 30
0.0
 11
-1.236111
 21
0.25
 31
0.0
  0
LINE
  5
14D
100
AcDbEntity
  8
NONE
  6
CONTINUOUS
 62
     6
100
AcDbLine
 10
-2.069444
 20
0.055556
 30
0.0
 11
-1.236111
 21
0.055556
 31
0.0
  0
LINE
  5
14E
100
AcDbEntity
  8
NONE
  6
CONTINUOUS
 62
     6
100
AcDbLine
 10
-2.069444
 20
-0.125
 30
0.0
 11
-1.236111
 21
-0.125
 31
0.0
  0
LINE
  5
14F
100
AcDbEntity
  8
NONE
  6
CONTINUOUS
 62
     6
100
AcDbLine
 10
-2.069444
 20
-0.319445
 30
0.0
 11
-1.236111
 21
-0.319445
 31
0.0
  0
LINE
  5
150
100
AcDbEntity
  8
NONE
  6
CONTINUOUS
 62
     6
100
AcDbLine
 10
-2.069444
 20
-0.5
 30
0.0
 11
-1.222222
 21
-0.5
 31
0.0
  0
LINE
  5
151
100
AcDbEntity
  8
NONE
  6
CONTINUOUS
 62
     6
100
AcDbLine
 10
-2.083333
 20
-0.680556
 30
0.0
 11
-1.236111
 21
-0.680556
 31
0.0
  0
LINE
  5
152
100
AcDbEntity
  8
NONE
  6
CONTINUOUS
 62
     6
100
AcDbLine
 10
-2.069444
 20
-0.875
 30
0.0
 11
-1.236111
 21
-0.875
 31
0.0
  0
LINE
  5
153
100
AcDbEntity
  8
NONE
  6
CONTINUOUS
 62
     6
100
AcDbLine
 10
-2.069444
 20
-1.083333
 30
0.0
 11
-1.236111
 21
-1.083333
 31
0.0
  0
LINE
  5
154
100
AcDbEntity
  8
NONE
  6
CONTINUOUS
 62
     6
100
AcDbLine
 10
-2.069444
 20
-1.263889
 30
0.0
 11
-1.236111
 21
-1.263889
 31
0.0
  0
LINE
  5
155
100
AcDbEntity
  8
NONE
  6
CONTINUOUS
 62
     6
100
AcDbLine
 10
-2.069444
 20
-1.458333
 30
0.0
 11
-1.236111
 21
-1.458333
 31
0.0
  0
LINE
  5
156
100
AcDbEntity
  8
NONE
  6
CONTINUOUS
 62
     6
100
AcDbLine
 10
-2.069444
 20
-1.638889
 30
0.0
 11
-1.236111
 21
-1.638889
 31
0.0
  0
LINE
  5
157
100
AcDbEntity
  8
NONE
  6
CONTINUOUS
 62
     6
100
AcDbLine
 10
-2.069444
 20
-1.819444
 30
0.0
 11
-1.236111
 21
-1.819444
 31
0.0
  0
LINE
  5
158
100
AcDbEntity
  8
NONE
  6
CONTINUOUS
 62
     6
100
AcDbLine
 10
-1.652778
 20
0.625
 30
0.0
 11
-1.652778
 21
0.444444
 31
0.0
  0
LINE
  5
159
100
AcDbEntity
  8
NONE
  6
CONTINUOUS
 62
     6
100
AcDbLine
 10
-1.833333
 20
0.430555
 30
0.0
 11
-1.833333
 21
0.277778
 31
0.0
  0
LINE
  5
15A
100
AcDbEntity
  8
NONE
  6
CONTINUOUS
 62
     6
100
AcDbLine
 10
-1.513889
 20
0.416667
 30
0.0
 11
-1.513889
 21
0.236111
 31
0.0
  0
LINE
  5
15B
100
AcDbEntity
  8
NONE
  6
CONTINUOUS
 62
     6
100
AcDbLine
 10
-1.930556
 20
0.625
 30
0.0
 11
-1.930556
 21
0.458333
 31
0.0
  0
LINE
  5
15C
100
AcDbEntity
  8
NONE
  6
CONTINUOUS
 62
     6
100
AcDbLine
 10
-1.944444
 20
0.236111
 30
0.0
 11
-1.944444
 21
0.069444
 31
0.0
  0
LINE
  5
15D
100
AcDbEntity
  8
NONE
  6
CONTINUOUS
 62
     6
100
AcDbLine
 10
-1.944444
 20
-0.125
 30
0.0
 11
-1.944444
 21
-0.291667
 31
0.0
  0
LINE
  5
15E
100
AcDbEntity
  8
NONE
  6
CONTINUOUS
 62
     6
100
AcDbLine
 10
-1.819444
 20
-0.694445
 30
0.0
 11
-1.819444
 21
-0.875
 31
0.0
  0
LINE
  5
15F
100
AcDbEntity
  8
NONE
  6
CONTINUOUS
 62
     6
100
AcDbLine
 10
-1.944444
 20
-0.875
 30
0.0
 11
-1.944444
 21
-1.055556
 31
0.0
  0
LINE
  5
160
100
AcDbEntity
  8
NONE
  6
CONTINUOUS
 62
     6
100
AcDbLine
 10
-1.944444
 20
-1.291667
 30
0.0
 11
-1.944444
 21
-1.458333
 31
0.0
  0
LINE
  5
161
100
AcDbEntity
  8
NONE
  6
CONTINUOUS
 62
     6
100
AcDbLine
 10
-1.652778
 20
0.236111
 30
0.0
 11
-1.652778
 21
0.083333
 31
0.0
  0
LINE
  5
162
100
AcDbEntity
  8
NONE
  6
CONTINUOUS
 62
     6
100
AcDbLine
 10
-1.652778
 20
-0.125
 30
0.0
 11
-1.652778
 21
-0.319445
 31
0.0
  0
LINE
  5
163
100
AcDbEntity
  8
NONE
  6
CONTINUOUS
 62
     6
100
AcDbLine
 10
-1.486111
 20
-0.680556
 30
0.0
 11
-1.486111
 21
-0.875
 31
0.0
  0
LINE
  5
164
100
AcDbEntity
  8
NONE
  6
CONTINUOUS
 62
     6
100
AcDbLine
 10
-1.652778
 20
-0.875
 30
0.0
 11
-1.652778
 21
-1.055556
 31
0.0
  0
LINE
  5
165
100
AcDbEntity
  8
NONE
  6
CONTINUOUS
 62
     6
100
AcDbLine
 10
-1.666667
 20
-1.291667
 30
0.0
 11
-1.666667
 21
-1.472222
 31
0.0
  0
LINE
  5
166
100
AcDbEntity
  8
NONE
  6
CONTINUOUS
 62
     6
100
AcDbLine
 10
-1.819444
 20
0.055556
 30
0.0
 11
-1.819444
 21
-0.125
 31
0.0
  0
LINE
  5
167
100
AcDbEntity
  8
NONE
  6
CONTINUOUS
 62
     6
100
AcDbLine
 10
-1.791667
 20
-0.333333
 30
0.0
 11
-1.791667
 21
-0.5
 31
0.0
  0
LINE
  5
168
100
AcDbEntity
  8
NONE
  6
CONTINUOUS
 62
     6
100
AcDbLine
 10
-1.944444
 20
-0.5
 30
0.0
 11
-1.944444
 21
-0.680556
 31
0.0
  0
LINE
  5
169
100
AcDbEntity
  8
NONE
  6
CONTINUOUS
 62
     6
100
AcDbLine
 10
-1.833333
 20
-1.083333
 30
0.0
 11
-1.833333
 21
-1.25
 31
0.0
  0
LINE
  5
16A
100
AcDbEntity
  8
NONE
  6
CONTINUOUS
 62
     6
100
AcDbLine
 10
-1.805556
 20
-1.486111
 30
0.0
 11
-1.805556
 21
-1.638889
 31
0.0
  0
LINE
  5
16B
100
AcDbEntity
  8
NONE
  6
CONTINUOUS
 62
     6
100
AcDbLine
 10
-1.944444
 20
-1.652778
 30
0.0
 11
-1.944444
 21
-1.805556
 31
0.0
  0
LINE
  5
16C
100
AcDbEntity
  8
NONE
  6
CONTINUOUS
 62
     6
100
AcDbLine
 10
-1.513889
 20
0.041667
 30
0.0
 11
-1.513889
 21
-0.125
 31
0.0
  0
LINE
  5
16D
100
AcDbEntity
  8
NONE
  6
CONTINUOUS
 62
     6
100
AcDbLine
 10
-1.486111
 20
-0.333333
 30
0.0
 11
-1.486111
 21
-0.486111
 31
0.0
  0
LINE
  5
16E
100
AcDbEntity
  8
NONE
  6
CONTINUOUS
 62
     6
100
AcDbLine
 10
-1.361111
 20
-0.5
 30
0.0
 11
-1.361111
 21
-0.680556
 31
0.0
  0
LINE
  5
16F
100
AcDbEntity
  8
NONE
  6
CONTINUOUS
 62
     6
100
AcDbLine
 10
-1.527778
 20
-1.083333
 30
0.0
 11
-1.527778
 21
-1.25
 31
0.0
  0
LINE
  5
170
100
AcDbEntity
  8
NONE
  6
CONTINUOUS
 62
     6
100
AcDbLine
 10
-1.527778
 20
-1.486111
 30
0.0
 11
-1.527778
 21
-1.638889
 31
0.0
  0
LINE
  5
171
100
AcDbEntity
  8
NONE
  6
CONTINUOUS
 62
     6
100
AcDbLine
 10
-1.388889
 20
-1.638889
 30
0.0
 11
-1.388889
 21
-1.791667
 31
0.0
  0
LINE
  5
172
100
AcDbEntity
  8
NONE
  6
CONTINUOUS
 62
     6
100
AcDbLine
 10
-1.361111
 20
0.236111
 30
0.0
 11
-1.361111
 21
0.083333
 31
0.0
  0
LINE
  5
173
100
AcDbEntity
  8
NONE
  6
CONTINUOUS
 62
     6
100
AcDbLine
 10
-1.361111
 20
-0.152778
 30
0.0
 11
-1.361111
 21
-0.305556
 31
0.0
  0
LINE
  5
174
100
AcDbEntity
  8
NONE
  6
CONTINUOUS
 62
     6
100
AcDbLine
 10
-1.611111
 20
-0.5
 30
0.0
 11
-1.611111
 21
-0.666667
 31
0.0
  0
LINE
  5
175
100
AcDbEntity
  8
NONE
  6
CONTINUOUS
 62
     6
100
AcDbLine
 10
-1.361111
 20
-0.888889
 30
0.0
 11
-1.361111
 21
-1.041667
 31
0.0
  0
LINE
  5
176
100
AcDbEntity
  8
NONE
  6
CONTINUOUS
 62
     6
100
AcDbLine
 10
-1.361111
 20
-1.291667
 30
0.0
 11
-1.361111
 21
-1.472222
 31
0.0
  0
LWPOLYLINE
  5
177
100
AcDbEntity
  8
NONE
  6
CONTINUOUS
 62
     6
100
AcDbPolyline
 90
        5
 70
   129
 10
-2.236111
 20
-1.819444
 10
-1.222222
 20
-1.819444
 10
-1.222222
 20
-1.930556
 10
-2.236111
 20
-1.930556
 10
-2.236111
 20
-1.819444
  0
LWPOLYLINE
  5
178
100
AcDbEntity
  8
NONE
  6
CONTINUOUS
 62
     6
100
AcDbPolyline
 90
        5
 70
   129
 10
-2.569444
 20
-1.916667
 10
-0.222222
 20
-1.916667
 10
-0.222222
 20
-2.180556
 10
-2.569444
 20
-2.180556
 10
-2.569444
 20
-1.916667
  0
LINE
  5
179
100
AcDbEntity
  8
NONE
  6
CONTINUOUS
 62
     6
100
AcDbLine
 10
-1.652778
 20
-1.652778
 30
0.0
 11
-1.652778
 21
-1.805556
 31
0.0
  0
LWPOLYLINE
  5
17A
100
AcDbEntity
  8
NONE
  6
CONTINUOUS
 62
     6
100
AcDbPolyline
 90
        5
 70
   129
 10
-1.236111
 20
-1.819444
 10
-0.222222
 20
-1.819444
 10
-0.222222
 20
-1.930556
 10
-1.236111
 20
-1.930556
 10
-1.236111
 20
-1.819444
  0
TEXT
  5
17B
100
AcDbEntity
  8
NONE
 62
     7
100
AcDbText
 10
0.0
 20
0.0
 30
0.0
 40
0.133333
  1
Superior Clay
 41
0.6
 72
     1
 11
-0.819445
 21
3.930556
 31
0.0
100
AcDbText
 73
     3
  0
TEXT
  5
17C
100
AcDbEntity
  8
NONE
 62
     7
100
AcDbText
 10
0.0
 20
0.0
 30
0.0
 40
0.111111
  1
20"x20"
 41
0.6
 72
     1
 11
-0.5
 21
3.597222
 31
0.0
100
AcDbText
  0
TEXT
  5
17D
100
AcDbEntity
  8
NONE
 62
     7
100
AcDbText
 10
0.0
 20
0.0
 30
0.0
 40
0.111111
  1
clay flue liner
 41
0.6
 72
     1
 11
-0.5
 21
3.458333
 31
0.0
100
AcDbText
  0
TEXT
  5
17E
100
AcDbEntity
  8
NONE
 62
     7
100
AcDbText
 10
0.0
 20
0.0
 30
0.0
 40
0.133333
  1
Superior Clay
 41
0.6
 72
     1
 11
-0.777778
 21
2.513889
 31
0.0
100
AcDbText
 73
     3
  0
TEXT
  5
17F
100
AcDbEntity
  8
NONE
 62
     7
100
AcDbText
 10
0.0
 20
0.0
 30
0.0
 40
0.111111
  1
20"x 20"
 41
0.6
 72
     1
 11
-0.472222
 21
2.208333
 31
0.0
100
AcDbText
  0
TEXT
  5
180
100
AcDbEntity
  8
NONE
 62
     7
100
AcDbText
 10
0.0
 20
0.0
 30
0.0
 40
0.111111
  1
smoke chamber
 41
0.6
 72
     1
 11
-0.472222
 21
2.069444
 31
0.0
100
AcDbText
  0
TEXT
  5
181
100
AcDbEntity
  8
NONE
 62
     7
100
AcDbText
 10
0.0
 20
0.0
 30
0.0
 40
0.133333
  1
Superior Clay
 41
0.6
 72
     1
 11
-0.777778
 21
1.347222
 31
0.0
100
AcDbText
 73
     3
  0
TEXT
  5
182
100
AcDbEntity
  8
NONE
 62
     7
100
AcDbText
 10
0.0
 20
0.0
 30
0.0
 40
0.111111
  1
Five tile
 41
0.6
 72
     1
 11
-0.458333
 21
1.041667
 31
0.0
100
AcDbText
  0
TEXT
  5
183
100
AcDbEntity
  8
NONE
 62
     7
100
AcDbText
 10
0.0
 20
0.0
 30
0.0
 40
0.111111
  1
throat assembly
 41
0.6
 72
     1
 11
-0.458333
 21
0.902778
 31
0.0
100
AcDbText
  0
TEXT
  5
184
100
AcDbEntity
  8
NONE
 62
     7
100
AcDbText
 10
0.0
 20
0.0
 30
0.0
 40
0.133333
  1
42" Vestal Damper
 41
0.6
 72
     1
 11
-0.722222
 21
1.819444
 31
0.0
100
AcDbText
 73
     3
  0
TEXT
  5
185
100
AcDbEntity
  8
NONE
 62
     7
100
AcDbText
 10
0.0
 20
0.0
 30
0.0
 40
0.133333
  1
Standard
 41
0.6
 72
     1
 11
-0.5
 21
-0.222222
 31
0.0
100
AcDbText
  0
TEXT
  5
186
100
AcDbEntity
  8
NONE
 62
     7
100
AcDbText
 10
0.0
 20
0.0
 30
0.0
 40
0.133333
  1
4.5"x 9" firebrick
 41
0.6
 72
     1
 11
-0.5
 21
-0.388889
 31
0.0
100
AcDbText
  0
LINE
  5
187
100
AcDbEntity
  8
NONE
  6
CONTINUOUS
 62
     6
100
AcDbLine
 10
0.291667
 20
-2.902778
 30
0.0
 11
-0.541667
 21
-2.902778
 31
0.0
  0
LINE
  5
188
100
AcDbEntity
  8
NONE
  6
CONTINUOUS
 62
     6
100
AcDbLine
 10
0.277778
 20
-4.416667
 30
0.0
 11
-0.555556
 21
-4.416667
 31
0.0
  0
LINE
  5
189
100
AcDbEntity
  8
NONE
  6
CONTINUOUS
 62
     6
100
AcDbLine
 10
0.277778
 20
-5.25
 30
0.0
 11
-0.541667
 21
-5.25
 31
0.0
  0
LINE
  5
18A
100
AcDbEntity
  8
NONE
  6
CONTINUOUS
 62
     6
100
AcDbLine
 10
0.069444
 20
-4.125
 30
0.0
 11
0.069444
 21
-3.541667
 31
0.0
  0
POLYLINE
  5
18B
100
AcDbEntity
  8
NONE
  6
CONTINUOUS
 62
     6
100
AcDb2dPolyline
 66
     1
 10
0.0
 20
0.0
 30
0.0
 40
0.014
 41
0.014
 75
     5
  0
VERTEX
  5
18C
100
AcDbEntity
  8
NONE
  6
CONTINUOUS
 62
     6
100
AcDbVertex
100
AcDb2dVertex
 10
0.069444
 20
-4.25
 30
0.0
  0
VERTEX
  5
18D
100
AcDbEntity
  8
NONE
  6
CONTINUOUS
 62
     6
100
AcDbVertex
100
AcDb2dVertex
 10
0.111111
 20
-4.125
 30
0.0
  0
VERTEX
  5
18E
100
AcDbEntity
  8
NONE
  6
CONTINUOUS
 62
     6
100
AcDbVertex
100
AcDb2dVertex
 10
0.069444
 20
-4.125
 30
0.0
  0
VERTEX
  5
18F
100
AcDbEntity
  8
NONE
  6
CONTINUOUS
 62
     6
100
AcDbVertex
100
AcDb2dVertex
 10
0.027778
 20
-4.125
 30
0.0
  0
VERTEX
  5
190
100
AcDbEntity
  8
NONE
  6
CONTINUOUS
 62
     6
100
AcDbVertex
100
AcDb2dVertex
 10
0.069444
 20
-4.25
 30
0.0
  0
SEQEND
  5
191
100
AcDbEntity
  8
NONE
  6
CONTINUOUS
  0
POLYLINE
  5
192
100
AcDbEntity
  8
NONE
  6
CONTINUOUS
 62
     6
100
AcDb2dPolyline
 66
     1
 10
0.0
 20
0.0
 30
0.0
 40
0.014
 41
0.014
 75
     5
  0
VERTEX
  5
193
100
AcDbEntity
  8
NONE
  6
CONTINUOUS
 62
     6
100
AcDbVertex
100
AcDb2dVertex
 10
0.069444
 20
-3.416667
 30
0.0
  0
VERTEX
  5
194
100
AcDbEntity
  8
NONE
  6
CONTINUOUS
 62
     6
100
AcDbVertex
100
AcDb2dVertex
 10
0.111111
 20
-3.541667
 30
0.0
  0
VERTEX
  5
195
100
AcDbEntity
  8
NONE
  6
CONTINUOUS
 62
     6
100
AcDbVertex
100
AcDb2dVertex
 10
0.069444
 20
-3.541667
 30
0.0
  0
VERTEX
  5
196
100
AcDbEntity
  8
NONE
  6
CONTINUOUS
 62
     6
100
AcDbVertex
100
AcDb2dVertex
 10
0.027778
 20
-3.541667
 30
0.0
  0
VERTEX
  5
197
100
AcDbEntity
  8
NONE
  6
CONTINUOUS
 62
     6
100
AcDbVertex
100
AcDb2dVertex
 10
0.069444
 20
-3.416667
 30
0.0
  0
SEQEND
  5
198
100
AcDbEntity
  8
NONE
  6
CONTINUOUS
  0
LWPOLYLINE
  5
199
100
AcDbEntity
  8
NONE
  6
CONTINUOUS
 62
     4
100
AcDbPolyline
 90
        5
 70
   129
 10
-0.194444
 20
-3.694444
 10
0.361111
 20
-3.694444
 10
0.361111
 20
-3.972222
 10
-0.194444
 20
-3.972222
 10
-0.194444
 20
-3.694444
  0
TEXT
  5
19A
100
AcDbEntity
  8
NONE
 62
     7
100
AcDbText
 10
-0.111111
 20
-3.722222
 30
0.0
 40
0.133333
  1
1' 8"
 41
0.6
 11
-0.111111
 21
-3.722222
 31
0.0
100
AcDbText
 73
     3
  0
LINE
  5
19B
100
AcDbEntity
  8
NONE
  6
CONTINUOUS
 62
     6
100
AcDbLine
 10
0.069444
 20
-3.291667
 30
0.0
 11
0.069444
 21
-3.041667
 31
0.0
  0
POLYLINE
  5
19C
100
AcDbEntity
  8
NONE
  6
CONTINUOUS
 62
     6
100
AcDb2dPolyline
 66
     1
 10
0.0
 20
0.0
 30
0.0
 40
0.014
 41
0.014
 75
     5
  0
VERTEX
  5
19D
100
AcDbEntity
  8
NONE
  6
CONTINUOUS
 62
     6
100
AcDbVertex
100
AcDb2dVertex
 10
0.069444
 20
-3.416667
 30
0.0
  0
VERTEX
  5
19E
100
AcDbEntity
  8
NONE
  6
CONTINUOUS
 62
     6
100
AcDbVertex
100
AcDb2dVertex
 10
0.111111
 20
-3.291667
 30
0.0
  0
VERTEX
  5
19F
100
AcDbEntity
  8
NONE
  6
CONTINUOUS
 62
     6
100
AcDbVertex
100
AcDb2dVertex
 10
0.069444
 20
-3.291667
 30
0.0
  0
VERTEX
  5
1A0
100
AcDbEntity
  8
NONE
  6
CONTINUOUS
 62
     6
100
AcDbVertex
100
AcDb2dVertex
 10
0.027778
 20
-3.291667
 30
0.0
  0
VERTEX
  5
1A1
100
AcDbEntity
  8
NONE
  6
CONTINUOUS
 62
     6
100
AcDbVertex
100
AcDb2dVertex
 10
0.069444
 20
-3.416667
 30
0.0
  0
SEQEND
  5
1A2
100
AcDbEntity
  8
NONE
  6
CONTINUOUS
  0
POLYLINE
  5
1A3
100
AcDbEntity
  8
NONE
  6
CONTINUOUS
 62
     6
100
AcDb2dPolyline
 66
     1
 10
0.0
 20
0.0
 30
0.0
 40
0.014
 41
0.014
 75
     5
  0
VERTEX
  5
1A4
100
AcDbEntity
  8
NONE
  6
CONTINUOUS
 62
     6
100
AcDbVertex
100
AcDb2dVertex
 10
0.069444
 20
-2.916667
 30
0.0
  0
VERTEX
  5
1A5
100
AcDbEntity
  8
NONE
  6
CONTINUOUS
 62
     6
100
AcDbVertex
100
AcDb2dVertex
 10
0.111111
 20
-3.041667
 30
0.0
  0
VERTEX
  5
1A6
100
AcDbEntity
  8
NONE
  6
CONTINUOUS
 62
     6
100
AcDbVertex
100
AcDb2dVertex
 10
0.069444
 20
-3.041667
 30
0.0
  0
VERTEX
  5
1A7
100
AcDbEntity
  8
NONE
  6
CONTINUOUS
 62
     6
100
AcDbVertex
100
AcDb2dVertex
 10
0.027778
 20
-3.041667
 30
0.0
  0
VERTEX
  5
1A8
100
AcDbEntity
  8
NONE
  6
CONTINUOUS
 62
     6
100
AcDbVertex
100
AcDb2dVertex
 10
0.069444
 20
-2.916667
 30
0.0
  0
SEQEND
  5
1A9
100
AcDbEntity
  8
NONE
  6
CONTINUOUS
  0
LWPOLYLINE
  5
1AA
100
AcDbEntity
  8
NONE
  6
CONTINUOUS
 62
     4
100
AcDbPolyline
 90
        5
 70
   129
 10
-0.069445
 20
-3.027778
 10
0.236111
 20
-3.027778
 10
0.236111
 20
-3.305556
 10
-0.069445
 20
-3.305556
 10
-0.069445
 20
-3.027778
  0
TEXT
  5
1AB
100
AcDbEntity
  8
NONE
 62
     7
100
AcDbText
 10
0.0
 20
-3.055556
 30
0.0
 40
0.133333
  1
1'
 41
0.6
 11
0.0
 21
-3.055556
 31
0.0
100
AcDbText
 73
     3
  0
LINE
  5
1AC
100
AcDbEntity
  8
NONE
  6
CONTINUOUS
 62
     6
100
AcDbLine
 10
0.291667
 20
-3.416667
 30
0.0
 11
-0.097222
 21
-3.416667
 31
0.0
  0
LINE
  5
1AD
100
AcDbEntity
  8
NONE
  6
CONTINUOUS
 62
     6
100
AcDbLine
 10
0.458333
 20
-2.791667
 30
0.0
 11
0.458333
 21
-2.458333
 31
0.0
  0
LINE
  5
1AE
100
AcDbEntity
  8
NONE
  6
CONTINUOUS
 62
     6
100
AcDbLine
 10
3.944444
 20
-2.791667
 30
0.0
 11
3.944444
 21
-2.444444
 31
0.0
  0
LINE
  5
1AF
100
AcDbEntity
  8
NONE
  6
CONTINUOUS
 62
     6
100
AcDbLine
 10
-0.791667
 20
3.708333
 30
0.0
 11
-1.597222
 21
3.972222
 31
0.0
  0
POLYLINE
  5
1B0
100
AcDbEntity
  8
NONE
  6
CONTINUOUS
 62
     6
100
AcDb2dPolyline
 66
     1
 10
0.0
 20
0.0
 30
0.0
 40
0.014
 41
0.014
 75
     5
  0
VERTEX
  5
1B1
100
AcDbEntity
  8
NONE
  6
CONTINUOUS
 62
     6
100
AcDbVertex
100
AcDb2dVertex
 10
-1.722222
 20
4.0
 30
0.0
  0
VERTEX
  5
1B2
100
AcDbEntity
  8
NONE
  6
CONTINUOUS
 62
     6
100
AcDbVertex
100
AcDb2dVertex
 10
-1.583333
 20
4.0
 30
0.0
  0
VERTEX
  5
1B3
100
AcDbEntity
  8
NONE
  6
CONTINUOUS
 62
     6
100
AcDbVertex
100
AcDb2dVertex
 10
-1.597222
 20
3.958333
 30
0.0
  0
VERTEX
  5
1B4
100
AcDbEntity
  8
NONE
  6
CONTINUOUS
 62
     6
100
AcDbVertex
100
AcDb2dVertex
 10
-1.611111
 20
3.916667
 30
0.0
  0
VERTEX
  5
1B5
100
AcDbEntity
  8
NONE
  6
CONTINUOUS
 62
     6
100
AcDbVertex
100
AcDb2dVertex
 10
-1.722222
 20
4.0
 30
0.0
  0
SEQEND
  5
1B6
100
AcDbEntity
  8
NONE
  6
CONTINUOUS
  0
LINE
  5
1B7
100
AcDbEntity
  8
NONE
  6
CONTINUOUS
 62
     6
100
AcDbLine
 10
-0.833333
 20
3.638889
 30
0.0
 11
-1.777778
 21
3.111111
 31
0.0
  0
POLYLINE
  5
1B8
100
AcDbEntity
  8
NONE
  6
CONTINUOUS
 62
     6
100
AcDb2dPolyline
 66
     1
 10
0.0
 20
0.0
 30
0.0
 40
0.014
 41
0.014
 75
     5
  0
VERTEX
  5
1B9
100
AcDbEntity
  8
NONE
  6
CONTINUOUS
 62
     6
100
AcDbVertex
100
AcDb2dVertex
 10
-1.888889
 20
3.041667
 30
0.0
  0
VERTEX
  5
1BA
100
AcDbEntity
  8
NONE
  6
CONTINUOUS
 62
     6
100
AcDbVertex
100
AcDb2dVertex
 10
-1.791667
 20
3.138889
 30
0.0
  0
VERTEX
  5
1BB
100
AcDbEntity
  8
NONE
  6
CONTINUOUS
 62
     6
100
AcDbVertex
100
AcDb2dVertex
 10
-1.777778
 20
3.097222
 30
0.0
  0
VERTEX
  5
1BC
100
AcDbEntity
  8
NONE
  6
CONTINUOUS
 62
     6
100
AcDbVertex
100
AcDb2dVertex
 10
-1.763889
 20
3.055556
 30
0.0
  0
VERTEX
  5
1BD
100
AcDbEntity
  8
NONE
  6
CONTINUOUS
 62
     6
100
AcDbVertex
100
AcDb2dVertex
 10
-1.888889
 20
3.041667
 30
0.0
  0
SEQEND
  5
1BE
100
AcDbEntity
  8
NONE
  6
CONTINUOUS
  0
LINE
  5
1BF
100
AcDbEntity
  8
NONE
  6
CONTINUOUS
 62
     6
100
AcDbLine
 10
0.166667
 20
3.708333
 30
0.0
 11
1.902778
 21
3.194444
 31
0.0
  0
POLYLINE
  5
1C0
100
AcDbEntity
  8
NONE
  6
CONTINUOUS
 62
     6
100
AcDb2dPolyline
 66
     1
 10
0.0
 20
0.0
 30
0.0
 40
0.014
 41
0.014
 75
     5
  0
VERTEX
  5
1C1
100
AcDbEntity
  8
NONE
  6
CONTINUOUS
 62
     6
100
AcDbVertex
100
AcDb2dVertex
 10
2.027778
 20
3.166667
 30
0.0
  0
VERTEX
  5
1C2
100
AcDbEntity
  8
NONE
  6
CONTINUOUS
 62
     6
100
AcDbVertex
100
AcDb2dVertex
 10
1.888889
 20
3.166667
 30
0.0
  0
VERTEX
  5
1C3
100
AcDbEntity
  8
NONE
  6
CONTINUOUS
 62
     6
100
AcDbVertex
100
AcDb2dVertex
 10
1.902778
 20
3.208333
 30
0.0
  0
VERTEX
  5
1C4
100
AcDbEntity
  8
NONE
  6
CONTINUOUS
 62
     6
100
AcDbVertex
100
AcDb2dVertex
 10
1.916667
 20
3.25
 30
0.0
  0
VERTEX
  5
1C5
100
AcDbEntity
  8
NONE
  6
CONTINUOUS
 62
     6
100
AcDbVertex
100
AcDb2dVertex
 10
2.027778
 20
3.166667
 30
0.0
  0
SEQEND
  5
1C6
100
AcDbEntity
  8
NONE
  6
CONTINUOUS
  0
LINE
  5
1C7
100
AcDbEntity
  8
NONE
  6
CONTINUOUS
 62
     6
100
AcDbLine
 10
-0.763889
 20
2.263889
 30
0.0
 11
-1.652778
 21
1.902778
 31
0.0
  0
POLYLINE
  5
1C8
100
AcDbEntity
  8
NONE
  6
CONTINUOUS
 62
     6
100
AcDb2dPolyline
 66
     1
 10
0.0
 20
0.0
 30
0.0
 40
0.014
 41
0.014
 75
     5
  0
VERTEX
  5
1C9
100
AcDbEntity
  8
NONE
  6
CONTINUOUS
 62
     6
100
AcDbVertex
100
AcDb2dVertex
 10
-1.763889
 20
1.847222
 30
0.0
  0
VERTEX
  5
1CA
100
AcDbEntity
  8
NONE
  6
CONTINUOUS
 62
     6
100
AcDbVertex
100
AcDb2dVertex
 10
-1.666667
 20
1.930556
 30
0.0
  0
VERTEX
  5
1CB
100
AcDbEntity
  8
NONE
  6
CONTINUOUS
 62
     6
100
AcDbVertex
100
AcDb2dVertex
 10
-1.652778
 20
1.888889
 30
0.0
  0
VERTEX
  5
1CC
100
AcDbEntity
  8
NONE
  6
CONTINUOUS
 62
     6
100
AcDbVertex
100
AcDb2dVertex
 10
-1.638889
 20
1.847222
 30
0.0
  0
VERTEX
  5
1CD
100
AcDbEntity
  8
NONE
  6
CONTINUOUS
 62
     6
100
AcDbVertex
100
AcDb2dVertex
 10
-1.763889
 20
1.847222
 30
0.0
  0
SEQEND
  5
1CE
100
AcDbEntity
  8
NONE
  6
CONTINUOUS
  0
LINE
  5
1CF
100
AcDbEntity
  8
NONE
  6
CONTINUOUS
 62
     6
100
AcDbLine
 10
0.152778
 20
2.333333
 30
0.0
 11
1.694444
 21
1.902778
 31
0.0
  0
POLYLINE
  5
1D0
100
AcDbEntity
  8
NONE
  6
CONTINUOUS
 62
     6
100
AcDb2dPolyline
 66
     1
 10
0.0
 20
0.0
 30
0.0
 40
0.014
 41
0.014
 75
     5
  0
VERTEX
  5
1D1
100
AcDbEntity
  8
NONE
  6
CONTINUOUS
 62
     6
100
AcDbVertex
100
AcDb2dVertex
 10
1.819444
 20
1.875
 30
0.0
  0
VERTEX
  5
1D2
100
AcDbEntity
  8
NONE
  6
CONTINUOUS
 62
     6
100
AcDbVertex
100
AcDb2dVertex
 10
1.680556
 20
1.861111
 30
0.0
  0
VERTEX
  5
1D3
100
AcDbEntity
  8
NONE
  6
CONTINUOUS
 62
     6
100
AcDbVertex
100
AcDb2dVertex
 10
1.694444
 20
1.902778
 30
0.0
  0
VERTEX
  5
1D4
100
AcDbEntity
  8
NONE
  6
CONTINUOUS
 62
     6
100
AcDbVertex
100
AcDb2dVertex
 10
1.708333
 20
1.944444
 30
0.0
  0
VERTEX
  5
1D5
100
AcDbEntity
  8
NONE
  6
CONTINUOUS
 62
     6
100
AcDbVertex
100
AcDb2dVertex
 10
1.819444
 20
1.875
 30
0.0
  0
SEQEND
  5
1D6
100
AcDbEntity
  8
NONE
  6
CONTINUOUS
  0
LINE
  5
1D7
100
AcDbEntity
  8
NONE
  6
CONTINUOUS
 62
     6
100
AcDbLine
 10
0.5
 20
1.708333
 30
0.0
 11
1.458333
 21
1.263889
 31
0.0
  0
POLYLINE
  5
1D8
100
AcDbEntity
  8
NONE
  6
CONTINUOUS
 62
     6
100
AcDb2dPolyline
 66
     1
 10
0.0
 20
0.0
 30
0.0
 40
0.014
 41
0.014
 75
     5
  0
VERTEX
  5
1D9
100
AcDbEntity
  8
NONE
  6
CONTINUOUS
 62
     6
100
AcDbVertex
100
AcDb2dVertex
 10
1.569444
 20
1.208333
 30
0.0
  0
VERTEX
  5
1DA
100
AcDbEntity
  8
NONE
  6
CONTINUOUS
 62
     6
100
AcDbVertex
100
AcDb2dVertex
 10
1.444444
 20
1.222222
 30
0.0
  0
VERTEX
  5
1DB
100
AcDbEntity
  8
NONE
  6
CONTINUOUS
 62
     6
100
AcDbVertex
100
AcDb2dVertex
 10
1.458333
 20
1.263889
 30
0.0
  0
VERTEX
  5
1DC
100
AcDbEntity
  8
NONE
  6
CONTINUOUS
 62
     6
100
AcDbVertex
100
AcDb2dVertex
 10
1.472222
 20
1.305556
 30
0.0
  0
VERTEX
  5
1DD
100
AcDbEntity
  8
NONE
  6
CONTINUOUS
 62
     6
100
AcDbVertex
100
AcDb2dVertex
 10
1.569444
 20
1.208333
 30
0.0
  0
SEQEND
  5
1DE
100
AcDbEntity
  8
NONE
  6
CONTINUOUS
  0
LINE
  5
1DF
100
AcDbEntity
  8
NONE
  6
CONTINUOUS
 62
     6
100
AcDbLine
 10
-0.888889
 20
1.708333
 30
0.0
 11
-1.680556
 21
1.277778
 31
0.0
  0
POLYLINE
  5
1E0
100
AcDbEntity
  8
NONE
  6
CONTINUOUS
 62
     6
100
AcDb2dPolyline
 66
     1
 10
0.0
 20
0.0
 30
0.0
 40
0.014
 41
0.014
 75
     5
  0
VERTEX
  5
1E1
100
AcDbEntity
  8
NONE
  6
CONTINUOUS
 62
     6
100
AcDbVertex
100
AcDb2dVertex
 10
-1.791667
 20
1.222222
 30
0.0
  0
VERTEX
  5
1E2
100
AcDbEntity
  8
NONE
  6
CONTINUOUS
 62
     6
100
AcDbVertex
100
AcDb2dVertex
 10
-1.694444
 20
1.319444
 30
0.0
  0
VERTEX
  5
1E3
100
AcDbEntity
  8
NONE
  6
CONTINUOUS
 62
     6
100
AcDbVertex
100
AcDb2dVertex
 10
-1.680556
 20
1.277778
 30
0.0
  0
VERTEX
  5
1E4
100
AcDbEntity
  8
NONE
  6
CONTINUOUS
 62
     6
100
AcDbVertex
100
AcDb2dVertex
 10
-1.666667
 20
1.236111
 30
0.0
  0
VERTEX
  5
1E5
100
AcDbEntity
  8
NONE
  6
CONTINUOUS
 62
     6
100
AcDbVertex
100
AcDb2dVertex
 10
-1.791667
 20
1.222222
 30
0.0
  0
SEQEND
  5
1E6
100
AcDbEntity
  8
NONE
  6
CONTINUOUS
  0
LINE
  5
1E7
100
AcDbEntity
  8
NONE
  6
CONTINUOUS
 62
     6
100
AcDbLine
 10
0.166667
 20
1.138889
 30
0.0
 11
1.416667
 21
0.888889
 31
0.0
  0
POLYLINE
  5
1E8
100
AcDbEntity
  8
NONE
  6
CONTINUOUS
 62
     6
100
AcDb2dPolyline
 66
     1
 10
0.0
 20
0.0
 30
0.0
 40
0.014
 41
0.014
 75
     5
  0
VERTEX
  5
1E9
100
AcDbEntity
  8
NONE
  6
CONTINUOUS
 62
     6
100
AcDbVertex
100
AcDb2dVertex
 10
1.541667
 20
0.875
 30
0.0
  0
VERTEX
  5
1EA
100
AcDbEntity
  8
NONE
  6
CONTINUOUS
 62
     6
100
AcDbVertex
100
AcDb2dVertex
 10
1.402778
 20
0.861111
 30
0.0
  0
VERTEX
  5
1EB
100
AcDbEntity
  8
NONE
  6
CONTINUOUS
 62
     6
100
AcDbVertex
100
AcDb2dVertex
 10
1.416667
 20
0.902778
 30
0.0
  0
VERTEX
  5
1EC
100
AcDbEntity
  8
NONE
  6
CONTINUOUS
 62
     6
100
AcDbVertex
100
AcDb2dVertex
 10
1.430556
 20
0.944444
 30
0.0
  0
VERTEX
  5
1ED
100
AcDbEntity
  8
NONE
  6
CONTINUOUS
 62
     6
100
AcDbVertex
100
AcDb2dVertex
 10
1.541667
 20
0.875
 30
0.0
  0
SEQEND
  5
1EE
100
AcDbEntity
  8
NONE
  6
CONTINUOUS
  0
LINE
  5
1EF
100
AcDbEntity
  8
NONE
  6
CONTINUOUS
 62
     6
100
AcDbLine
 10
0.361111
 20
-0.166667
 30
0.0
 11
1.875
 21
-0.736111
 31
0.0
  0
POLYLINE
  5
1F0
100
AcDbEntity
  8
NONE
  6
CONTINUOUS
 62
     6
100
AcDb2dPolyline
 66
     1
 10
0.0
 20
0.0
 30
0.0
 40
0.014
 41
0.014
 75
     5
  0
VERTEX
  5
1F1
100
AcDbEntity
  8
NONE
  6
CONTINUOUS
 62
     6
100
AcDbVertex
100
AcDb2dVertex
 10
1.986111
 20
-0.777778
 30
0.0
  0
VERTEX
  5
1F2
100
AcDbEntity
  8
NONE
  6
CONTINUOUS
 62
     6
100
AcDbVertex
100
AcDb2dVertex
 10
1.861111
 20
-0.777778
 30
0.0
  0
VERTEX
  5
1F3
100
AcDbEntity
  8
NONE
  6
CONTINUOUS
 62
     6
100
AcDbVertex
100
AcDb2dVertex
 10
1.875
 20
-0.736111
 30
0.0
  0
VERTEX
  5
1F4
100
AcDbEntity
  8
NONE
  6
CONTINUOUS
 62
     6
100
AcDbVertex
100
AcDb2dVertex
 10
1.888889
 20
-0.694445
 30
0.0
  0
VERTEX
  5
1F5
100
AcDbEntity
  8
NONE
  6
CONTINUOUS
 62
     6
100
AcDbVertex
100
AcDb2dVertex
 10
1.986111
 20
-0.777778
 30
0.0
  0
SEQEND
  5
1F6
100
AcDbEntity
  8
NONE
  6
CONTINUOUS
  0
TEXT
  5
1F7
100
AcDbEntity
  8
NONE
 62
     7
100
AcDbText
 10
-3.555556
 20
-2.805556
 30
0.0
 40
0.2
  1
%%uSuperior Clay Corp.
 41
0.6
100
AcDbText
  0
TEXT
  5
1F8
100
AcDbEntity
  8
NONE
 62
     7
100
AcDbText
 10
-3.555556
 20
-3.055556
 30
0.0
 40
0.2
  1
%%u60" Rumford Fireplace
 41
0.6
100
AcDbText
  0
TEXT
  5
1F9
100
AcDbEntity
  8
NONE
 62
     7
100
AcDbText
 10
-3.652778
 20
-3.166667
 30
0.0
 40
0.133333
  1
Components:
 41
0.6
 11
-3.652778
 21
-3.166667
 31
0.0
100
AcDbText
 73
     3
  0
TEXT
  5
1FA
100
AcDbEntity
  8
NONE
 62
     7
100
AcDbText
 10
-3.638889
 20
-4.166667
 30
0.0
 40
0.133333
  1
Technical Services:
 41
0.6
 11
-3.638889
 21
-4.166667
 31
0.0
100
AcDbText
 73
     3
  0
TEXT
  5
1FB
100
AcDbEntity
  8
NONE
 62
     7
100
AcDbText
 10
-3.375
 20
-3.555556
 30
0.0
 40
0.133333
  1
Superior Clay Corp.
 41
0.6
100
AcDbText
  0
TEXT
  5
1FC
100
AcDbEntity
  8
NONE
 62
     7
100
AcDbText
 10
-3.375
 20
-3.722222
 30
0.0
 40
0.133333
  1
P.O. Box 352
 41
0.6
100
AcDbText
  0
TEXT
  5
1FD
100
AcDbEntity
  8
NONE
 62
     7
100
AcDbText
 10
-3.375
 20
-3.888889
 30
0.0
 40
0.133333
  1
Uhrichsville, OH 44683
 41
0.6
100
AcDbText
  0
TEXT
  5
1FE
100
AcDbEntity
  8
NONE
 62
     7
100
AcDbText
 10
-3.375
 20
-4.055556
 30
0.0
 40
0.133333
  1
800 848 6166
 41
0.6
100
AcDbText
  0
TEXT
  5
1FF
100
AcDbEntity
  8
NONE
 62
     7
100
AcDbText
 10
-3.402778
 20
-4.555556
 30
0.0
 40
0.133333
  1
Buckley Rumford Co.
 41
0.6
100
AcDbText
  0
TEXT
  5
200
100
AcDbEntity
  8
NONE
 62
     7
100
AcDbText
 10
-3.402778
 20
-4.722222
 30
0.0
 40
0.133333
  1
1035 Monroe Street
 41
0.6
100
AcDbText
  0
TEXT
  5
201
100
AcDbEntity
  8
NONE
 62
     7
100
AcDbText
 10
-3.402778
 20
-4.888889
 30
0.0
 40
0.133333
  1
Port Townsend, WA 98368
 41
0.6
100
AcDbText
  0
TEXT
  5
202
100
AcDbEntity
  8
NONE
 62
     7
100
AcDbText
 10
-3.402778
 20
-5.055556
 30
0.0
 40
0.133333
  1
800 447 7788
 41
0.6
100
AcDbText
  0
INSERT
  5
203
100
AcDbEntity
  8
NONE
100
AcDbBlockReference
  2
*G0
 10
0.0
 20
0.0
 30
0.0
  0
LINE
  5
204
100
AcDbEntity
  8
NONE
  6
CONTINUOUS
 62
     6
100
AcDbLine
 10
0.402778
 20
3.875
 30
0.0
 11
1.736111
 21
4.055555
 31
0.0
  0
POLYLINE
  5
205
100
AcDbEntity
  8
NONE
  6
CONTINUOUS
 62
     6
100
AcDb2dPolyline
 66
     1
 10
0.0
 20
0.0
 30
0.0
 40
0.014
 41
0.014
 75
     5
  0
VERTEX
  5
206
100
AcDbEntity
  8
NONE
  6
CONTINUOUS
 62
     6
100
AcDbVertex
100
AcDb2dVertex
 10
1.861111
 20
4.083333
 30
0.0
  0
VERTEX
  5
207
100
AcDbEntity
  8
NONE
  6
CONTINUOUS
 62
     6
100
AcDbVertex
100
AcDb2dVertex
 10
1.736111
 20
4.027778
 30
0.0
  0
VERTEX
  5
208
100
AcDbEntity
  8
NONE
  6
CONTINUOUS
 62
     6
100
AcDbVertex
100
AcDb2dVertex
 10
1.736111
 20
4.069444
 30
0.0
  0
VERTEX
  5
209
100
AcDbEntity
  8
NONE
  6
CONTINUOUS
 62
     6
100
AcDbVertex
100
AcDb2dVertex
 10
1.736111
 20
4.111111
 30
0.0
  0
VERTEX
  5
20A
100
AcDbEntity
  8
NONE
  6
CONTINUOUS
 62
     6
100
AcDbVertex
100
AcDb2dVertex
 10
1.861111
 20
4.083333
 30
0.0
  0
SEQEND
  5
20B
100
AcDbEntity
  8
NONE
  6
CONTINUOUS
  0
LINE
  5
20C
100
AcDbEntity
  8
NONE
  6
CONTINUOUS
 62
     6
100
AcDbLine
 10
1.055556
 20
-4.611111
 30
0.0
 11
3.305556
 21
-4.611111
 31
0.0
  0
POLYLINE
  5
20D
100
AcDbEntity
  8
NONE
  6
CONTINUOUS
 62
     6
100
AcDb2dPolyline
 66
     1
 10
0.0
 20
0.0
 30
0.0
 40
0.014
 41
0.014
 75
     5
  0
VERTEX
  5
20E
100
AcDbEntity
  8
NONE
  6
CONTINUOUS
 62
     6
100
AcDbVertex
100
AcDb2dVertex
 10
0.930555
 20
-4.611111
 30
0.0
  0
VERTEX
  5
20F
100
AcDbEntity
  8
NONE
  6
CONTINUOUS
 62
     6
100
AcDbVertex
100
AcDb2dVertex
 10
1.055556
 20
-4.652778
 30
0.0
  0
VERTEX
  5
210
100
AcDbEntity
  8
NONE
  6
CONTINUOUS
 62
     6
100
AcDbVertex
100
AcDb2dVertex
 10
1.055556
 20
-4.611111
 30
0.0
  0
VERTEX
  5
211
100
AcDbEntity
  8
NONE
  6
CONTINUOUS
 62
     6
100
AcDbVertex
100
AcDb2dVertex
 10
1.055556
 20
-4.569445
 30
0.0
  0
VERTEX
  5
212
100
AcDbEntity
  8
NONE
  6
CONTINUOUS
 62
     6
100
AcDbVertex
100
AcDb2dVertex
 10
0.930555
 20
-4.611111
 30
0.0
  0
SEQEND
  5
213
100
AcDbEntity
  8
NONE
  6
CONTINUOUS
  0
POLYLINE
  5
214
100
AcDbEntity
  8
NONE
  6
CONTINUOUS
 62
     6
100
AcDb2dPolyline
 66
     1
 10
0.0
 20
0.0
 30
0.0
 40
0.014
 41
0.014
 75
     5
  0
VERTEX
  5
215
100
AcDbEntity
  8
NONE
  6
CONTINUOUS
 62
     6
100
AcDbVertex
100
AcDb2dVertex
 10
3.430556
 20
-4.611111
 30
0.0
  0
VERTEX
  5
216
100
AcDbEntity
  8
NONE
  6
CONTINUOUS
 62
     6
100
AcDbVertex
100
AcDb2dVertex
 10
3.305556
 20
-4.652778
 30
0.0
  0
VERTEX
  5
217
100
AcDbEntity
  8
NONE
  6
CONTINUOUS
 62
     6
100
AcDbVertex
100
AcDb2dVertex
 10
3.305556
 20
-4.611111
 30
0.0
  0
VERTEX
  5
218
100
AcDbEntity
  8
NONE
  6
CONTINUOUS
 62
     6
100
AcDbVertex
100
AcDb2dVertex
 10
3.305556
 20
-4.569445
 30
0.0
  0
VERTEX
  5
219
100
AcDbEntity
  8
NONE
  6
CONTINUOUS
 62
     6
100
AcDbVertex
100
AcDb2dVertex
 10
3.430556
 20
-4.611111
 30
0.0
  0
SEQEND
  5
21A
100
AcDbEntity
  8
NONE
  6
CONTINUOUS
  0
LWPOLYLINE
  5
21B
100
AcDbEntity
  8
NONE
  6
CONTINUOUS
 62
     4
100
AcDbPolyline
 90
        5
 70
   129
 10
2.027778
 20
-4.472222
 10
2.333333
 20
-4.472222
 10
2.333333
 20
-4.75
 10
2.027778
 20
-4.75
 10
2.027778
 20
-4.472222
  0
TEXT
  5
21C
100
AcDbEntity
  8
NONE
 62
     7
100
AcDbText
 10
2.097222
 20
-4.5
 30
0.0
 40
0.133333
  1
5'
 41
0.6
 11
2.097222
 21
-4.5
 31
0.0
100
AcDbText
 73
     3
  0
LINE
  5
21D
100
AcDbEntity
  8
NONE
  6
CONTINUOUS
 62
     6
100
AcDbLine
 10
3.430556
 20
-4.458333
 30
0.0
 11
3.430556
 21
-4.763889
 31
0.0
  0
LINE
  5
21E
100
AcDbEntity
  8
NONE
  6
CONTINUOUS
 62
     6
100
AcDbLine
 10
0.930555
 20
-4.444445
 30
0.0
 11
0.930555
 21
-4.694445
 31
0.0
  0
LINE
  5
21F
100
AcDbEntity
  8
NONE
  6
CONTINUOUS
 62
     8
100
AcDbLine
 10
-1.472222
 20
0.986111
 30
0.0
 11
-1.361111
 21
0.986111
 31
0.0
  0
LINE
  5
220
100
AcDbEntity
  8
NONE
  6
CONTINUOUS
 62
     8
100
AcDbLine
 10
-1.361111
 20
0.986111
 30
0.0
 11
-1.361111
 21
0.833333
 31
0.0
  0
LINE
  5
221
100
AcDbEntity
  8
NONE
  6
CONTINUOUS
 62
     8
100
AcDbLine
 10
-1.236111
 20
0.444444
 30
0.0
 11
-1.097222
 21
0.444444
 31
0.0
  0
LINE
  5
222
100
AcDbEntity
  8
NONE
  6
CONTINUOUS
 62
     8
100
AcDbLine
 10
-1.236111
 20
0.444444
 30
0.0
 11
-1.236111
 21
0.611111
 31
0.0
  0
LINE
  5
223
100
AcDbEntity
  8
NONE
  6
CONTINUOUS
 62
     6
100
AcDbLine
 10
-0.763889
 20
1.166667
 30
0.0
 11
-1.138889
 21
1.041667
 31
0.0
  0
POLYLINE
  5
224
100
AcDbEntity
  8
NONE
  6
CONTINUOUS
 62
     6
100
AcDb2dPolyline
 66
     1
 10
0.0
 20
0.0
 30
0.0
 40
0.014
 41
0.014
 75
     5
  0
VERTEX
  5
225
100
AcDbEntity
  8
NONE
  6
CONTINUOUS
 62
     6
100
AcDbVertex
100
AcDb2dVertex
 10
-1.263889
 20
1.0
 30
0.0
  0
VERTEX
  5
226
100
AcDbEntity
  8
NONE
  6
CONTINUOUS
 62
     6
100
AcDbVertex
100
AcDb2dVertex
 10
-1.152778
 20
1.083333
 30
0.0
  0
VERTEX
  5
227
100
AcDbEntity
  8
NONE
  6
CONTINUOUS
 62
     6
100
AcDbVertex
100
AcDb2dVertex
 10
-1.138889
 20
1.041667
 30
0.0
  0
VERTEX
  5
228
100
AcDbEntity
  8
NONE
  6
CONTINUOUS
 62
     6
100
AcDbVertex
100
AcDb2dVertex
 10
-1.125
 20
1.0
 30
0.0
  0
VERTEX
  5
229
100
AcDbEntity
  8
NONE
  6
CONTINUOUS
 62
     6
100
AcDbVertex
100
AcDb2dVertex
 10
-1.263889
 20
1.0
 30
0.0
  0
SEQEND
  5
22A
100
AcDbEntity
  8
NONE
  6
CONTINUOUS
  0
LINE
  5
22B
100
AcDbEntity
  8
NONE
  6
CONTINUOUS
 62
     6
100
AcDbLine
 10
-0.777778
 20
-0.152778
 30
0.0
 11
-1.319444
 21
-0.041667
 31
0.0
  0
POLYLINE
  5
22C
100
AcDbEntity
  8
NONE
  6
CONTINUOUS
 62
     6
100
AcDb2dPolyline
 66
     1
 10
0.0
 20
0.0
 30
0.0
 40
0.014
 41
0.014
 75
     5
  0
VERTEX
  5
22D
100
AcDbEntity
  8
NONE
  6
CONTINUOUS
 62
     6
100
AcDbVertex
100
AcDb2dVertex
 10
-1.444444
 20
-0.027778
 30
0.0
  0
VERTEX
  5
22E
100
AcDbEntity
  8
NONE
  6
CONTINUOUS
 62
     6
100
AcDbVertex
100
AcDb2dVertex
 10
-1.305556
 20
-0.013889
 30
0.0
  0
VERTEX
  5
22F
100
AcDbEntity
  8
NONE
  6
CONTINUOUS
 62
     6
100
AcDbVertex
100
AcDb2dVertex
 10
-1.319444
 20
-0.055556
 30
0.0
  0
VERTEX
  5
230
100
AcDbEntity
  8
NONE
  6
CONTINUOUS
 62
     6
100
AcDbVertex
100
AcDb2dVertex
 10
-1.333333
 20
-0.097222
 30
0.0
  0
VERTEX
  5
231
100
AcDbEntity
  8
NONE
  6
CONTINUOUS
 62
     6
100
AcDbVertex
100
AcDb2dVertex
 10
-1.444444
 20
-0.027778
 30
0.0
  0
SEQEND
  5
232
100
AcDbEntity
  8
NONE
  6
CONTINUOUS
  0
LINE
  5
233
100
AcDbEntity
  8
NONE
  6
CONTINUOUS
 62
     6
100
AcDbLine
 10
-0.805556
 20
-0.416667
 30
0.0
 11
-1.458333
 21
-1.708333
 31
0.0
  0
POLYLINE
  5
234
100
AcDbEntity
  8
NONE
  6
CONTINUOUS
 62
     6
100
AcDb2dPolyline
 66
     1
 10
0.0
 20
0.0
 30
0.0
 40
0.014
 41
0.014
 75
     5
  0
VERTEX
  5
235
100
AcDbEntity
  8
NONE
  6
CONTINUOUS
 62
     6
100
AcDbVertex
100
AcDb2dVertex
 10
-1.513889
 20
-1.819444
 30
0.0
  0
VERTEX
  5
236
100
AcDbEntity
  8
NONE
  6
CONTINUOUS
 62
     6
100
AcDbVertex
100
AcDb2dVertex
 10
-1.5
 20
-1.694444
 30
0.0
  0
VERTEX
  5
237
100
AcDbEntity
  8
NONE
  6
CONTINUOUS
 62
     6
100
AcDbVertex
100
AcDb2dVertex
 10
-1.458333
 20
-1.708333
 30
0.0
  0
VERTEX
  5
238
100
AcDbEntity
  8
NONE
  6
CONTINUOUS
 62
     6
100
AcDbVertex
100
AcDb2dVertex
 10
-1.416667
 20
-1.722222
 30
0.0
  0
VERTEX
  5
239
100
AcDbEntity
  8
NONE
  6
CONTINUOUS
 62
     6
100
AcDbVertex
100
AcDb2dVertex
 10
-1.513889
 20
-1.819444
 30
0.0
  0
SEQEND
  5
23A
100
AcDbEntity
  8
NONE
  6
CONTINUOUS
  0
ARC
  5
23B
100
AcDbEntity
  8
NONE
  6
CONTINUOUS
 62
     6
100
AcDbCircle
 10
-1.069444
 20
1.027778
 30
0.0
 40
0.611111
100
AcDbArc
 50
180.0
 51
254.999999
  0
ARC
  5
23C
100
AcDbEntity
  8
NONE
  6
CONTINUOUS
 62
     6
100
AcDbCircle
 10
-1.069444
 20
1.027778
 30
0.0
 40
0.569444
100
AcDbArc
 50
182.999998
 51
249.999996
  0
LWPOLYLINE
  5
23D
100
AcDbEntity
  8
NONE
  6
CONTINUOUS
 62
     6
100
AcDbPolyline
 90
        5
 70
   129
 10
0.458333
 20
-1.819444
 10
3.972222
 20
-1.819444
 10
3.972222
 20
-1.930556
 10
0.458333
 20
-1.930556
 10
0.458333
 20
-1.819444
  0
LINE
  5
23E
100
AcDbEntity
  8
NONE
  6
CONTINUOUS
 62
     6
100
AcDbLine
 10
-0.083333
 20
-4.25
 30
0.0
 11
0.277778
 21
-4.25
 31
0.0
  0
POLYLINE
  5
23F
100
AcDbEntity
  8
NONE
  6
CONTINUOUS
 62
     6
100
AcDb2dPolyline
 66
     1
 10
0.0
 20
0.0
 30
0.0
 40
0.014
 41
0.014
 75
     5
  0
VERTEX
  5
240
100
AcDbEntity
  8
NONE
  6
CONTINUOUS
 62
     6
100
AcDbVertex
100
AcDb2dVertex
 10
0.847222
 20
-4.152778
 30
0.0
  0
VERTEX
  5
241
100
AcDbEntity
  8
NONE
  6
CONTINUOUS
 62
     6
100
AcDbVertex
100
AcDb2dVertex
 10
1.625
 20
-3.347222
 30
0.0
  0
VERTEX
  5
242
100
AcDbEntity
  8
NONE
  6
CONTINUOUS
 62
     6
100
AcDbVertex
100
AcDb2dVertex
 10
1.694444
 20
-3.416667
 30
0.0
  0
VERTEX
  5
243
100
AcDbEntity
  8
NONE
  6
CONTINUOUS
 62
     6
100
AcDbVertex
100
AcDb2dVertex
 10
0.916667
 20
-4.222222
 30
0.0
  0
VERTEX
  5
244
100
AcDbEntity
  8
NONE
  6
CONTINUOUS
 62
     6
100
AcDbVertex
100
AcDb2dVertex
 10
0.847222
 20
-4.152778
 30
0.0
  0
SEQEND
  5
245
100
AcDbEntity
  8
NONE
  6
CONTINUOUS
  0
LINE
  5
246
100
AcDbEntity
  8
NONE
  6
CONTINUOUS
 62
     6
100
AcDbLine
 10
2.333333
 20
-3.416667
 30
0.0
 11
1.944444
 21
-3.416667
 31
0.0
  0
POLYLINE
  5
247
100
AcDbEntity
  8
NONE
  6
CONTINUOUS
 62
     6
100
AcDb2dPolyline
 66
     1
 10
0.0
 20
0.0
 30
0.0
 40
0.014
 41
0.014
 75
     5
  0
VERTEX
  5
248
100
AcDbEntity
  8
NONE
  6
CONTINUOUS
 62
     6
100
AcDbVertex
100
AcDb2dVertex
 10
2.736111
 20
-3.347222
 30
0.0
  0
VERTEX
  5
249
100
AcDbEntity
  8
NONE
  6
CONTINUOUS
 62
     6
100
AcDbVertex
100
AcDb2dVertex
 10
3.513889
 20
-4.152778
 30
0.0
  0
VERTEX
  5
24A
100
AcDbEntity
  8
NONE
  6
CONTINUOUS
 62
     6
100
AcDbVertex
100
AcDb2dVertex
 10
3.430556
 20
-4.222222
 30
0.0
  0
VERTEX
  5
24B
100
AcDbEntity
  8
NONE
  6
CONTINUOUS
 62
     6
100
AcDbVertex
100
AcDb2dVertex
 10
2.652778
 20
-3.416667
 30
0.0
  0
VERTEX
  5
24C
100
AcDbEntity
  8
NONE
  6
CONTINUOUS
 62
     6
100
AcDbVertex
100
AcDb2dVertex
 10
2.736111
 20
-3.347222
 30
0.0
  0
SEQEND
  5
24D
100
AcDbEntity
  8
NONE
  6
CONTINUOUS
  0
POLYLINE
  5
24E
100
AcDbEntity
  8
NONE
  6
CONTINUOUS
 62
     6
100
AcDb2dPolyline
 66
     1
 10
0.0
 20
0.0
 30
0.0
 40
0.014
 41
0.014
 75
     5
  0
VERTEX
  5
24F
100
AcDbEntity
  8
NONE
  6
CONTINUOUS
 62
     6
100
AcDbVertex
100
AcDb2dVertex
 10
0.847222
 20
-3.291667
 30
0.0
  0
VERTEX
  5
250
100
AcDbEntity
  8
NONE
  6
CONTINUOUS
 62
     6
100
AcDbVertex
100
AcDb2dVertex
 10
0.847222
 20
-3.833333
 30
0.0
  0
VERTEX
  5
251
100
AcDbEntity
  8
NONE
  6
CONTINUOUS
 62
     6
100
AcDbVertex
100
AcDb2dVertex
 10
1.388889
 20
-3.291667
 30
0.0
  0
VERTEX
  5
252
100
AcDbEntity
  8
NONE
  6
CONTINUOUS
 62
     6
100
AcDbVertex
100
AcDb2dVertex
 10
1.388889
 20
-3.291667
 30
0.0
  0
VERTEX
  5
253
100
AcDbEntity
  8
NONE
  6
CONTINUOUS
 62
     6
100
AcDbVertex
100
AcDb2dVertex
 10
0.847222
 20
-3.291667
 30
0.0
  0
SEQEND
  5
254
100
AcDbEntity
  8
NONE
  6
CONTINUOUS
  0
POLYLINE
  5
255
100
AcDbEntity
  8
NONE
  6
CONTINUOUS
 62
     6
100
AcDb2dPolyline
 66
     1
 10
0.0
 20
0.0
 30
0.0
 40
0.014
 41
0.014
 75
     5
  0
VERTEX
  5
256
100
AcDbEntity
  8
NONE
  6
CONTINUOUS
 62
     6
100
AcDbVertex
100
AcDb2dVertex
 10
3.569444
 20
-3.291667
 30
0.0
  0
VERTEX
  5
257
100
AcDbEntity
  8
NONE
  6
CONTINUOUS
 62
     6
100
AcDbVertex
100
AcDb2dVertex
 10
3.569444
 20
-3.833333
 30
0.0
  0
VERTEX
  5
258
100
AcDbEntity
  8
NONE
  6
CONTINUOUS
 62
     6
100
AcDbVertex
100
AcDb2dVertex
 10
3.027778
 20
-3.291667
 30
0.0
  0
VERTEX
  5
259
100
AcDbEntity
  8
NONE
  6
CONTINUOUS
 62
     6
100
AcDbVertex
100
AcDb2dVertex
 10
3.027778
 20
-3.291667
 30
0.0
  0
VERTEX
  5
25A
100
AcDbEntity
  8
NONE
  6
CONTINUOUS
 62
     6
100
AcDbVertex
100
AcDb2dVertex
 10
3.569444
 20
-3.291667
 30
0.0
  0
SEQEND
  5
25B
100
AcDbEntity
  8
NONE
  6
CONTINUOUS
  0
LINE
  5
25C
100
AcDbEntity
  8
NONE
  6
CONTINUOUS
 62
     6
100
AcDbLine
 10
2.027778
 20
-3.305556
 30
0.0
 11
2.027778
 21
-3.416667
 31
0.0
  0
LINE
  5
25D
100
AcDbEntity
  8
NONE
  6
CONTINUOUS
 62
     6
100
AcDbLine
 10
2.347222
 20
-3.305556
 30
0.0
 11
2.347222
 21
-3.416667
 31
0.0
  0
LINE
  5
25E
100
AcDbEntity
  8
NONE
  6
CONTINUOUS
 62
     6
100
AcDbLine
 10
1.416667
 20
-3.569444
 30
0.0
 11
1.486111
 21
-3.638889
 31
0.0
  0
LINE
  5
25F
100
AcDbEntity
  8
NONE
  6
CONTINUOUS
 62
     6
100
AcDbLine
 10
1.222222
 20
-3.763889
 30
0.0
 11
1.291667
 21
-3.819444
 31
0.0
  0
LINE
  5
260
100
AcDbEntity
  8
NONE
  6
CONTINUOUS
 62
     6
100
AcDbLine
 10
1.0
 20
-3.972222
 30
0.0
 11
1.083333
 21
-4.055556
 31
0.0
  0
LINE
  5
261
100
AcDbEntity
  8
NONE
  6
CONTINUOUS
 62
     6
100
AcDbLine
 10
2.861111
 20
-3.625
 30
0.0
 11
2.930556
 21
-3.555556
 31
0.0
  0
LINE
  5
262
100
AcDbEntity
  8
NONE
  6
CONTINUOUS
 62
     6
100
AcDbLine
 10
3.069444
 20
-3.819444
 30
0.0
 11
3.138889
 21
-3.75
 31
0.0
  0
LINE
  5
263
100
AcDbEntity
  8
NONE
  6
CONTINUOUS
 62
     6
100
AcDbLine
 10
3.291667
 20
-4.055556
 30
0.0
 11
3.361111
 21
-3.986111
 31
0.0
  0
LINE
  5
264
100
AcDbEntity
  8
NONE
  6
CONTINUOUS
 62
     6
100
AcDbLine
 10
-3.444444
 20
0.611111
 30
0.0
 11
-3.444444
 21
0.597222
 31
0.0
  0
POLYLINE
  5
265
100
AcDbEntity
  8
NONE
  6
CONTINUOUS
 62
     6
100
AcDb2dPolyline
 66
     1
 10
0.0
 20
0.0
 30
0.0
 40
0.014
 41
0.014
 75
     5
  0
VERTEX
  5
266
100
AcDbEntity
  8
NONE
  6
CONTINUOUS
 62
     6
100
AcDbVertex
100
AcDb2dVertex
 10
-3.444444
 20
1.027778
 30
0.0
  0
VERTEX
  5
267
100
AcDbEntity
  8
NONE
  6
CONTINUOUS
 62
     6
100
AcDbVertex
100
AcDb2dVertex
 10
-3.486111
 20
0.902778
 30
0.0
  0
VERTEX
  5
268
100
AcDbEntity
  8
NONE
  6
CONTINUOUS
 62
     6
100
AcDbVertex
100
AcDb2dVertex
 10
-3.444444
 20
0.902778
 30
0.0
  0
VERTEX
  5
269
100
AcDbEntity
  8
NONE
  6
CONTINUOUS
 62
     6
100
AcDbVertex
100
AcDb2dVertex
 10
-3.402778
 20
0.902778
 30
0.0
  0
VERTEX
  5
26A
100
AcDbEntity
  8
NONE
  6
CONTINUOUS
 62
     6
100
AcDbVertex
100
AcDb2dVertex
 10
-3.444444
 20
1.027778
 30
0.0
  0
SEQEND
  5
26B
100
AcDbEntity
  8
NONE
  6
CONTINUOUS
  0
POLYLINE
  5
26C
100
AcDbEntity
  8
NONE
  6
CONTINUOUS
 62
     6
100
AcDb2dPolyline
 66
     1
 10
0.0
 20
0.0
 30
0.0
 40
0.014
 41
0.014
 75
     5
  0
VERTEX
  5
26D
100
AcDbEntity
  8
NONE
  6
CONTINUOUS
 62
     6
100
AcDbVertex
100
AcDb2dVertex
 10
-3.444444
 20
0.472222
 30
0.0
  0
VERTEX
  5
26E
100
AcDbEntity
  8
NONE
  6
CONTINUOUS
 62
     6
100
AcDbVertex
100
AcDb2dVertex
 10
-3.486111
 20
0.597222
 30
0.0
  0
VERTEX
  5
26F
100
AcDbEntity
  8
NONE
  6
CONTINUOUS
 62
     6
100
AcDbVertex
100
AcDb2dVertex
 10
-3.444444
 20
0.597222
 30
0.0
  0
VERTEX
  5
270
100
AcDbEntity
  8
NONE
  6
CONTINUOUS
 62
     6
100
AcDbVertex
100
AcDb2dVertex
 10
-3.402778
 20
0.597222
 30
0.0
  0
VERTEX
  5
271
100
AcDbEntity
  8
NONE
  6
CONTINUOUS
 62
     6
100
AcDbVertex
100
AcDb2dVertex
 10
-3.444444
 20
0.472222
 30
0.0
  0
SEQEND
  5
272
100
AcDbEntity
  8
NONE
  6
CONTINUOUS
  0
TEXT
  5
273
100
AcDbEntity
  8
NONE
 62
     7
100
AcDbText
 10
-3.861111
 20
0.861111
 30
0.0
 40
0.133333
  1
1' 1-1/2"
 41
0.6
 11
-3.861111
 21
0.861111
 31
0.0
100
AcDbText
 73
     3
  0
ENDSEC
  0
SECTION
  2
OBJECTS
  0
DICTIONARY
  5
19
100
AcDbDictionary
  3
ACAD_GROUP
350
1A
  3
ACAD_MLINESTYLE
350
1B
  0
DICTIONARY
  5
1A
102
{ACAD_REACTORS
330
19
102
}
100
AcDbDictionary
  0
DICTIONARY
  5
1B
102
{ACAD_REACTORS
330
19
102
}
100
AcDbDictionary
  3
STANDARD
350
1C
  0
MLINESTYLE
  5
1C
102
{ACAD_REACTORS
330
1B
102
}
100
AcDbMlineStyle
  2
STANDARD
 70
     0
  3

 62
     0
 51
90.0
 52
90.0
 71
     2
 49
0.5
 62
   256
  6
BYLAYER
 49
-0.5
 62
   256
  6
BYLAYER
  0
ENDSEC
  0
EOF
